ISO-10303-21;
HEADER;
/* Generated by software containing ST-Developer
 * from STEP Tools, Inc. (www.steptools.com) 
 */
/* OPTION: using custom renumber hook */

FILE_DESCRIPTION(
/* description */ ('STEP AP214'),
/* implementation_level */ '2;1');

FILE_NAME(
/* name */ '9811_BZ-1-30',
/* time_stamp */ '2024-08-05T15:49:36+02:00',
/* author */ ('License CC BY-ND 4.0'),
/* organization */ ('CADENAS'),
/* preprocessor_version */ 'ST-DEVELOPER v19.3',
/* originating_system */ 'PARTsolutions',
/* authorisation */ '  ');

FILE_SCHEMA (('AUTOMOTIVE_DESIGN {1 0 10303 214 3 1 1}'));
ENDSEC;

DATA;
#10=PROPERTY_DEFINITION_REPRESENTATION(#14,#12);
#11=PROPERTY_DEFINITION_REPRESENTATION(#15,#13);
#12=REPRESENTATION('',(#16),#391);
#13=REPRESENTATION('',(#17),#391);
#14=PROPERTY_DEFINITION('pmi validation property','',#396);
#15=PROPERTY_DEFINITION('pmi validation property','',#396);
#16=VALUE_REPRESENTATION_ITEM('number of annotations',COUNT_MEASURE(0.));
#17=VALUE_REPRESENTATION_ITEM('number of views',COUNT_MEASURE(0.));
#18=SHAPE_REPRESENTATION_RELATIONSHIP('','',#249,#19);
#19=ADVANCED_BREP_SHAPE_REPRESENTATION('',(#247),#391);
#20=CYLINDRICAL_SURFACE('',#258,18.);
#21=CYLINDRICAL_SURFACE('',#264,15.25);
#22=CIRCLE('',#252,18.);
#23=CIRCLE('',#253,15.25);
#24=CIRCLE('',#255,18.);
#25=CIRCLE('',#256,15.25);
#26=ORIENTED_EDGE('',*,*,#86,.T.);
#27=ORIENTED_EDGE('',*,*,#87,.T.);
#28=ORIENTED_EDGE('',*,*,#88,.T.);
#29=ORIENTED_EDGE('',*,*,#89,.T.);
#30=ORIENTED_EDGE('',*,*,#90,.T.);
#31=ORIENTED_EDGE('',*,*,#91,.T.);
#32=ORIENTED_EDGE('',*,*,#92,.F.);
#33=ORIENTED_EDGE('',*,*,#93,.F.);
#34=ORIENTED_EDGE('',*,*,#94,.F.);
#35=ORIENTED_EDGE('',*,*,#95,.F.);
#36=ORIENTED_EDGE('',*,*,#96,.F.);
#37=ORIENTED_EDGE('',*,*,#97,.F.);
#38=ORIENTED_EDGE('',*,*,#98,.F.);
#39=ORIENTED_EDGE('',*,*,#99,.F.);
#40=ORIENTED_EDGE('',*,*,#100,.F.);
#41=ORIENTED_EDGE('',*,*,#101,.F.);
#42=ORIENTED_EDGE('',*,*,#102,.T.);
#43=ORIENTED_EDGE('',*,*,#103,.T.);
#44=ORIENTED_EDGE('',*,*,#104,.T.);
#45=ORIENTED_EDGE('',*,*,#105,.T.);
#46=ORIENTED_EDGE('',*,*,#96,.T.);
#47=ORIENTED_EDGE('',*,*,#106,.F.);
#48=ORIENTED_EDGE('',*,*,#86,.F.);
#49=ORIENTED_EDGE('',*,*,#107,.T.);
#50=ORIENTED_EDGE('',*,*,#101,.T.);
#51=ORIENTED_EDGE('',*,*,#108,.F.);
#52=ORIENTED_EDGE('',*,*,#87,.F.);
#53=ORIENTED_EDGE('',*,*,#106,.T.);
#54=ORIENTED_EDGE('',*,*,#100,.T.);
#55=ORIENTED_EDGE('',*,*,#109,.F.);
#56=ORIENTED_EDGE('',*,*,#88,.F.);
#57=ORIENTED_EDGE('',*,*,#108,.T.);
#58=ORIENTED_EDGE('',*,*,#99,.T.);
#59=ORIENTED_EDGE('',*,*,#110,.F.);
#60=ORIENTED_EDGE('',*,*,#89,.F.);
#61=ORIENTED_EDGE('',*,*,#109,.T.);
#62=ORIENTED_EDGE('',*,*,#98,.T.);
#63=ORIENTED_EDGE('',*,*,#111,.F.);
#64=ORIENTED_EDGE('',*,*,#90,.F.);
#65=ORIENTED_EDGE('',*,*,#110,.T.);
#66=ORIENTED_EDGE('',*,*,#97,.T.);
#67=ORIENTED_EDGE('',*,*,#107,.F.);
#68=ORIENTED_EDGE('',*,*,#91,.F.);
#69=ORIENTED_EDGE('',*,*,#111,.T.);
#70=ORIENTED_EDGE('',*,*,#102,.F.);
#71=ORIENTED_EDGE('',*,*,#112,.F.);
#72=ORIENTED_EDGE('',*,*,#93,.T.);
#73=ORIENTED_EDGE('',*,*,#113,.T.);
#74=ORIENTED_EDGE('',*,*,#103,.F.);
#75=ORIENTED_EDGE('',*,*,#113,.F.);
#76=ORIENTED_EDGE('',*,*,#92,.T.);
#77=ORIENTED_EDGE('',*,*,#114,.T.);
#78=ORIENTED_EDGE('',*,*,#104,.F.);
#79=ORIENTED_EDGE('',*,*,#114,.F.);
#80=ORIENTED_EDGE('',*,*,#95,.T.);
#81=ORIENTED_EDGE('',*,*,#115,.T.);
#82=ORIENTED_EDGE('',*,*,#105,.F.);
#83=ORIENTED_EDGE('',*,*,#115,.F.);
#84=ORIENTED_EDGE('',*,*,#94,.T.);
#85=ORIENTED_EDGE('',*,*,#112,.T.);
#86=EDGE_CURVE('',#116,#117,#136,.T.);
#87=EDGE_CURVE('',#117,#118,#22,.T.);
#88=EDGE_CURVE('',#118,#119,#137,.T.);
#89=EDGE_CURVE('',#119,#120,#138,.T.);
#90=EDGE_CURVE('',#120,#121,#139,.T.);
#91=EDGE_CURVE('',#121,#116,#140,.T.);
#92=EDGE_CURVE('',#122,#123,#23,.T.);
#93=EDGE_CURVE('',#124,#122,#141,.T.);
#94=EDGE_CURVE('',#125,#124,#142,.T.);
#95=EDGE_CURVE('',#123,#125,#143,.T.);
#96=EDGE_CURVE('',#126,#127,#144,.T.);
#97=EDGE_CURVE('',#128,#126,#145,.T.);
#98=EDGE_CURVE('',#129,#128,#146,.T.);
#99=EDGE_CURVE('',#130,#129,#147,.T.);
#100=EDGE_CURVE('',#131,#130,#148,.T.);
#101=EDGE_CURVE('',#127,#131,#24,.T.);
#102=EDGE_CURVE('',#132,#133,#149,.T.);
#103=EDGE_CURVE('',#133,#134,#25,.T.);
#104=EDGE_CURVE('',#134,#135,#150,.T.);
#105=EDGE_CURVE('',#135,#132,#151,.T.);
#106=EDGE_CURVE('',#117,#127,#152,.T.);
#107=EDGE_CURVE('',#116,#126,#153,.T.);
#108=EDGE_CURVE('',#118,#131,#154,.T.);
#109=EDGE_CURVE('',#119,#130,#155,.T.);
#110=EDGE_CURVE('',#120,#129,#156,.T.);
#111=EDGE_CURVE('',#121,#128,#157,.T.);
#112=EDGE_CURVE('',#124,#132,#158,.T.);
#113=EDGE_CURVE('',#122,#133,#159,.T.);
#114=EDGE_CURVE('',#123,#134,#160,.T.);
#115=EDGE_CURVE('',#125,#135,#161,.T.);
#116=VERTEX_POINT('',#330);
#117=VERTEX_POINT('',#331);
#118=VERTEX_POINT('',#333);
#119=VERTEX_POINT('',#335);
#120=VERTEX_POINT('',#337);
#121=VERTEX_POINT('',#339);
#122=VERTEX_POINT('',#342);
#123=VERTEX_POINT('',#343);
#124=VERTEX_POINT('',#345);
#125=VERTEX_POINT('',#347);
#126=VERTEX_POINT('',#351);
#127=VERTEX_POINT('',#352);
#128=VERTEX_POINT('',#354);
#129=VERTEX_POINT('',#356);
#130=VERTEX_POINT('',#358);
#131=VERTEX_POINT('',#360);
#132=VERTEX_POINT('',#363);
#133=VERTEX_POINT('',#364);
#134=VERTEX_POINT('',#366);
#135=VERTEX_POINT('',#368);
#136=LINE('',#329,#162);
#137=LINE('',#334,#163);
#138=LINE('',#336,#164);
#139=LINE('',#338,#165);
#140=LINE('',#340,#166);
#141=LINE('',#344,#167);
#142=LINE('',#346,#168);
#143=LINE('',#348,#169);
#144=LINE('',#350,#170);
#145=LINE('',#353,#171);
#146=LINE('',#355,#172);
#147=LINE('',#357,#173);
#148=LINE('',#359,#174);
#149=LINE('',#362,#175);
#150=LINE('',#367,#176);
#151=LINE('',#369,#177);
#152=LINE('',#371,#178);
#153=LINE('',#372,#179);
#154=LINE('',#374,#180);
#155=LINE('',#376,#181);
#156=LINE('',#378,#182);
#157=LINE('',#380,#183);
#158=LINE('',#383,#184);
#159=LINE('',#384,#185);
#160=LINE('',#386,#186);
#161=LINE('',#388,#187);
#162=VECTOR('',#271,1000.);
#163=VECTOR('',#274,1000.);
#164=VECTOR('',#275,1000.);
#165=VECTOR('',#276,1000.);
#166=VECTOR('',#277,1000.);
#167=VECTOR('',#280,1000.);
#168=VECTOR('',#281,1000.);
#169=VECTOR('',#282,1000.);
#170=VECTOR('',#285,1000.);
#171=VECTOR('',#286,1000.);
#172=VECTOR('',#287,1000.);
#173=VECTOR('',#288,1000.);
#174=VECTOR('',#289,1000.);
#175=VECTOR('',#292,1000.);
#176=VECTOR('',#295,1000.);
#177=VECTOR('',#296,1000.);
#178=VECTOR('',#299,1000.);
#179=VECTOR('',#300,1000.);
#180=VECTOR('',#303,1000.);
#181=VECTOR('',#306,1000.);
#182=VECTOR('',#309,1000.);
#183=VECTOR('',#312,1000.);
#184=VECTOR('',#317,1000.);
#185=VECTOR('',#318,1000.);
#186=VECTOR('',#321,1000.);
#187=VECTOR('',#324,1000.);
#188=EDGE_LOOP('',(#26,#27,#28,#29,#30,#31));
#189=EDGE_LOOP('',(#32,#33,#34,#35));
#190=EDGE_LOOP('',(#36,#37,#38,#39,#40,#41));
#191=EDGE_LOOP('',(#42,#43,#44,#45));
#192=EDGE_LOOP('',(#46,#47,#48,#49));
#193=EDGE_LOOP('',(#50,#51,#52,#53));
#194=EDGE_LOOP('',(#54,#55,#56,#57));
#195=EDGE_LOOP('',(#58,#59,#60,#61));
#196=EDGE_LOOP('',(#62,#63,#64,#65));
#197=EDGE_LOOP('',(#66,#67,#68,#69));
#198=EDGE_LOOP('',(#70,#71,#72,#73));
#199=EDGE_LOOP('',(#74,#75,#76,#77));
#200=EDGE_LOOP('',(#78,#79,#80,#81));
#201=EDGE_LOOP('',(#82,#83,#84,#85));
#202=FACE_BOUND('',#188,.T.);
#203=FACE_BOUND('',#189,.T.);
#204=FACE_BOUND('',#190,.T.);
#205=FACE_BOUND('',#191,.T.);
#206=FACE_BOUND('',#192,.T.);
#207=FACE_BOUND('',#193,.T.);
#208=FACE_BOUND('',#194,.T.);
#209=FACE_BOUND('',#195,.T.);
#210=FACE_BOUND('',#196,.T.);
#211=FACE_BOUND('',#197,.T.);
#212=FACE_BOUND('',#198,.T.);
#213=FACE_BOUND('',#199,.T.);
#214=FACE_BOUND('',#200,.T.);
#215=FACE_BOUND('',#201,.T.);
#216=PLANE('',#251);
#217=PLANE('',#254);
#218=PLANE('',#257);
#219=PLANE('',#259);
#220=PLANE('',#260);
#221=PLANE('',#261);
#222=PLANE('',#262);
#223=PLANE('',#263);
#224=PLANE('',#265);
#225=PLANE('',#266);
#226=ADVANCED_FACE('',(#202,#203),#216,.T.);
#227=ADVANCED_FACE('',(#204,#205),#217,.F.);
#228=ADVANCED_FACE('',(#206),#218,.F.);
#229=ADVANCED_FACE('',(#207),#20,.T.);
#230=ADVANCED_FACE('',(#208),#219,.F.);
#231=ADVANCED_FACE('',(#209),#220,.F.);
#232=ADVANCED_FACE('',(#210),#221,.F.);
#233=ADVANCED_FACE('',(#211),#222,.F.);
#234=ADVANCED_FACE('',(#212),#223,.T.);
#235=ADVANCED_FACE('',(#213),#21,.F.);
#236=ADVANCED_FACE('',(#214),#224,.T.);
#237=ADVANCED_FACE('',(#215),#225,.T.);
#238=CLOSED_SHELL('',(#226,#227,#228,#229,#230,#231,#232,#233,#234,#235,
#236,#237));
#239=STYLED_ITEM('',(#240),#247);
#240=PRESENTATION_STYLE_ASSIGNMENT((#241));
#241=SURFACE_STYLE_USAGE(.BOTH.,#242);
#242=SURFACE_SIDE_STYLE('',(#243));
#243=SURFACE_STYLE_FILL_AREA(#244);
#244=FILL_AREA_STYLE('',(#245));
#245=FILL_AREA_STYLE_COLOUR('',#246);
#246=COLOUR_RGB('',0.689999997615814,0.689999997615814,0.689999997615814);
#247=MANIFOLD_SOLID_BREP('9811 BZ-1-30',#238);
#248=SHAPE_DEFINITION_REPRESENTATION(#396,#249);
#249=SHAPE_REPRESENTATION('9811 BZ-1-30',(#250),#391);
#250=AXIS2_PLACEMENT_3D('',#327,#267,#268);
#251=AXIS2_PLACEMENT_3D('',#328,#269,#270);
#252=AXIS2_PLACEMENT_3D('',#332,#272,#273);
#253=AXIS2_PLACEMENT_3D('',#341,#278,#279);
#254=AXIS2_PLACEMENT_3D('',#349,#283,#284);
#255=AXIS2_PLACEMENT_3D('',#361,#290,#291);
#256=AXIS2_PLACEMENT_3D('',#365,#293,#294);
#257=AXIS2_PLACEMENT_3D('',#370,#297,#298);
#258=AXIS2_PLACEMENT_3D('',#373,#301,#302);
#259=AXIS2_PLACEMENT_3D('',#375,#304,#305);
#260=AXIS2_PLACEMENT_3D('',#377,#307,#308);
#261=AXIS2_PLACEMENT_3D('',#379,#310,#311);
#262=AXIS2_PLACEMENT_3D('',#381,#313,#314);
#263=AXIS2_PLACEMENT_3D('',#382,#315,#316);
#264=AXIS2_PLACEMENT_3D('',#385,#319,#320);
#265=AXIS2_PLACEMENT_3D('',#387,#322,#323);
#266=AXIS2_PLACEMENT_3D('',#389,#325,#326);
#267=DIRECTION('',(0.,0.,1.));
#268=DIRECTION('',(1.,0.,0.));
#269=DIRECTION('',(1.,0.,0.));
#270=DIRECTION('',(0.,0.,-1.));
#271=DIRECTION('',(0.,-1.,0.));
#272=DIRECTION('',(1.,0.,0.));
#273=DIRECTION('',(0.,0.,-1.));
#274=DIRECTION('',(0.,1.,0.));
#275=DIRECTION('',(0.,0.996194698091746,0.0871557427476585));
#276=DIRECTION('',(0.,0.,1.));
#277=DIRECTION('',(0.,-0.996194698091746,0.0871557427476585));
#278=DIRECTION('',(1.,0.,0.));
#279=DIRECTION('',(0.,0.,-1.));
#280=DIRECTION('',(0.,-1.,0.));
#281=DIRECTION('',(0.,0.,1.));
#282=DIRECTION('',(0.,1.,0.));
#283=DIRECTION('',(1.,0.,0.));
#284=DIRECTION('',(0.,0.,-1.));
#285=DIRECTION('',(0.,-1.,0.));
#286=DIRECTION('',(0.,-0.996194698091746,0.0871557427476585));
#287=DIRECTION('',(0.,0.,1.));
#288=DIRECTION('',(0.,0.996194698091746,0.0871557427476585));
#289=DIRECTION('',(0.,1.,0.));
#290=DIRECTION('',(1.,0.,0.));
#291=DIRECTION('',(0.,0.,-1.));
#292=DIRECTION('',(0.,-1.,0.));
#293=DIRECTION('',(1.,0.,0.));
#294=DIRECTION('',(0.,0.,-1.));
#295=DIRECTION('',(0.,1.,0.));
#296=DIRECTION('',(0.,0.,1.));
#297=DIRECTION('',(0.,0.,-1.));
#298=DIRECTION('',(-1.,0.,0.));
#299=DIRECTION('',(-1.,0.,0.));
#300=DIRECTION('',(-1.,0.,0.));
#301=DIRECTION('',(-1.,0.,0.));
#302=DIRECTION('',(0.,0.,1.));
#303=DIRECTION('',(-1.,0.,0.));
#304=DIRECTION('',(0.,0.,1.));
#305=DIRECTION('',(1.,0.,0.));
#306=DIRECTION('',(-1.,0.,0.));
#307=DIRECTION('',(0.,-0.0871557427476585,0.996194698091746));
#308=DIRECTION('',(0.,-0.996194698091746,-0.0871557427476585));
#309=DIRECTION('',(-1.,0.,0.));
#310=DIRECTION('',(0.,-1.,0.));
#311=DIRECTION('',(0.,0.,-1.));
#312=DIRECTION('',(-1.,0.,0.));
#313=DIRECTION('',(0.,-0.0871557427476585,-0.996194698091746));
#314=DIRECTION('',(0.,0.996194698091746,-0.0871557427476585));
#315=DIRECTION('',(0.,0.,-1.));
#316=DIRECTION('',(-1.,0.,0.));
#317=DIRECTION('',(-1.,0.,0.));
#318=DIRECTION('',(-1.,0.,0.));
#319=DIRECTION('',(-1.,0.,0.));
#320=DIRECTION('',(0.,0.,1.));
#321=DIRECTION('',(-1.,0.,0.));
#322=DIRECTION('',(0.,0.,1.));
#323=DIRECTION('',(1.,0.,0.));
#324=DIRECTION('',(-1.,0.,0.));
#325=DIRECTION('',(0.,-1.,0.));
#326=DIRECTION('',(0.,0.,-1.));
#327=CARTESIAN_POINT('',(0.,0.,0.));
#328=CARTESIAN_POINT('',(0.5,0.,0.));
#329=CARTESIAN_POINT('',(0.5,20.,18.));
#330=CARTESIAN_POINT('',(0.5,20.,18.));
#331=CARTESIAN_POINT('',(0.5,2.20436423846524E-15,18.));
#332=CARTESIAN_POINT('',(0.5,0.,0.));
#333=CARTESIAN_POINT('',(0.5,0.,-18.));
#334=CARTESIAN_POINT('',(0.5,0.,-18.));
#335=CARTESIAN_POINT('',(0.5,20.,-18.));
#336=CARTESIAN_POINT('',(0.5,20.,-18.));
#337=CARTESIAN_POINT('',(0.5,30.,-17.1251133647408));
#338=CARTESIAN_POINT('',(0.5,30.,-17.1251133647408));
#339=CARTESIAN_POINT('',(0.5,30.,17.1251133647408));
#340=CARTESIAN_POINT('',(0.5,30.,17.1251133647408));
#341=CARTESIAN_POINT('',(0.5,5.28548559086683E-16,-1.70219741080224E-14));
#342=CARTESIAN_POINT('',(0.5,15.1710250148103,1.55));
#343=CARTESIAN_POINT('',(0.5,15.1710250148103,-1.54999999999999));
#344=CARTESIAN_POINT('',(0.5,16.25,1.55));
#345=CARTESIAN_POINT('',(0.5,16.25,1.55));
#346=CARTESIAN_POINT('',(0.5,16.25,-1.55));
#347=CARTESIAN_POINT('',(0.5,16.25,-1.55));
#348=CARTESIAN_POINT('',(0.5,15.1710250148103,-1.55));
#349=CARTESIAN_POINT('',(0.,0.,0.));
#350=CARTESIAN_POINT('',(0.,20.,18.));
#351=CARTESIAN_POINT('',(0.,20.,18.));
#352=CARTESIAN_POINT('',(0.,2.20436423846524E-15,18.));
#353=CARTESIAN_POINT('',(0.,30.,17.1251133647408));
#354=CARTESIAN_POINT('',(0.,30.,17.1251133647408));
#355=CARTESIAN_POINT('',(0.,30.,-17.1251133647408));
#356=CARTESIAN_POINT('',(0.,30.,-17.1251133647408));
#357=CARTESIAN_POINT('',(0.,20.,-18.));
#358=CARTESIAN_POINT('',(0.,20.,-18.));
#359=CARTESIAN_POINT('',(0.,0.,-18.));
#360=CARTESIAN_POINT('',(0.,0.,-18.));
#361=CARTESIAN_POINT('',(0.,0.,0.));
#362=CARTESIAN_POINT('',(0.,16.25,1.55));
#363=CARTESIAN_POINT('',(0.,16.25,1.55));
#364=CARTESIAN_POINT('',(0.,15.1710250148103,1.55));
#365=CARTESIAN_POINT('',(0.,5.28548559086683E-16,-1.70219741080224E-14));
#366=CARTESIAN_POINT('',(0.,15.1710250148103,-1.54999999999999));
#367=CARTESIAN_POINT('',(0.,15.1710250148103,-1.55));
#368=CARTESIAN_POINT('',(0.,16.25,-1.55));
#369=CARTESIAN_POINT('',(0.,16.25,-1.55));
#370=CARTESIAN_POINT('',(0.5,20.,18.));
#371=CARTESIAN_POINT('',(0.5,2.20436423846524E-15,18.));
#372=CARTESIAN_POINT('',(0.5,20.,18.));
#373=CARTESIAN_POINT('',(0.5,0.,0.));
#374=CARTESIAN_POINT('',(0.5,0.,-18.));
#375=CARTESIAN_POINT('',(0.5,0.,-18.));
#376=CARTESIAN_POINT('',(0.5,20.,-18.));
#377=CARTESIAN_POINT('',(0.5,20.,-18.));
#378=CARTESIAN_POINT('',(0.5,30.,-17.1251133647408));
#379=CARTESIAN_POINT('',(0.5,30.,-17.1251133647408));
#380=CARTESIAN_POINT('',(0.5,30.,17.1251133647408));
#381=CARTESIAN_POINT('',(0.5,30.,17.1251133647408));
#382=CARTESIAN_POINT('',(0.5,16.25,1.55));
#383=CARTESIAN_POINT('',(0.5,16.25,1.55));
#384=CARTESIAN_POINT('',(0.5,15.1710250148103,1.55));
#385=CARTESIAN_POINT('',(0.5,5.28548559086683E-16,-1.70219741080224E-14));
#386=CARTESIAN_POINT('',(0.5,15.1710250148103,-1.54999999999999));
#387=CARTESIAN_POINT('',(0.5,15.1710250148103,-1.55));
#388=CARTESIAN_POINT('',(0.5,16.25,-1.55));
#389=CARTESIAN_POINT('',(0.5,16.25,-1.55));
#390=MECHANICAL_DESIGN_GEOMETRIC_PRESENTATION_REPRESENTATION('',(#239),
#391);
#391=(
GEOMETRIC_REPRESENTATION_CONTEXT(3)
GLOBAL_UNCERTAINTY_ASSIGNED_CONTEXT((#392))
GLOBAL_UNIT_ASSIGNED_CONTEXT((#395,#394,#393))
REPRESENTATION_CONTEXT('9811 BZ-1-30','TOP_LEVEL_ASSEMBLY_PART')
);
#392=UNCERTAINTY_MEASURE_WITH_UNIT(LENGTH_MEASURE(0.005),#395,
'DISTANCE_ACCURACY_VALUE','Maximum Tolerance applied to model');
#393=(
NAMED_UNIT(*)
SI_UNIT($,.STERADIAN.)
SOLID_ANGLE_UNIT()
);
#394=(
NAMED_UNIT(*)
PLANE_ANGLE_UNIT()
SI_UNIT($,.RADIAN.)
);
#395=(
LENGTH_UNIT()
NAMED_UNIT(*)
SI_UNIT(.MILLI.,.METRE.)
);
#396=PRODUCT_DEFINITION_SHAPE('','',#397);
#397=PRODUCT_DEFINITION('','',#399,#398);
#398=PRODUCT_DEFINITION_CONTEXT('',#405,'design');
#399=PRODUCT_DEFINITION_FORMATION_WITH_SPECIFIED_SOURCE('','',#401,
 .NOT_KNOWN.);
#400=PRODUCT_RELATED_PRODUCT_CATEGORY('','',(#401));
#401=PRODUCT('9811 BZ-1-30','9811 BZ-1-30','9811 BZ-1-30',(#403));
#402=PRODUCT_CATEGORY('','');
#403=PRODUCT_CONTEXT('',#405,'mechanical');
#404=APPLICATION_PROTOCOL_DEFINITION('international standard',
'automotive_design',2010,#405);
#405=APPLICATION_CONTEXT(
'core data for automotive mechanical design processes');
ENDSEC;
END-ISO-10303-21;
