ISO-10303-21;
HEADER;
/* Generated by software containing ST-Developer
 * from STEP Tools, Inc. (www.steptools.com) 
 */
/* OPTION: using custom renumber hook */

FILE_DESCRIPTION(
/* description */ ('STEP AP214'),
/* implementation_level */ '2;1');

FILE_NAME(
/* name */ '9627_AD-1_2NPT-G1_2-I',
/* time_stamp */ '2024-07-30T14:36:02+02:00',
/* author */ ('License CC BY-ND 4.0'),
/* organization */ ('CADENAS'),
/* preprocessor_version */ 'ST-DEVELOPER v19.3',
/* originating_system */ 'PARTsolutions',
/* authorisation */ '  ');

FILE_SCHEMA (('AUTOMOTIVE_DESIGN {1 0 10303 214 3 1 1}'));
ENDSEC;

DATA;
#10=PROPERTY_DEFINITION_REPRESENTATION(#14,#12);
#11=PROPERTY_DEFINITION_REPRESENTATION(#15,#13);
#12=REPRESENTATION('',(#16),#607);
#13=REPRESENTATION('',(#17),#607);
#14=PROPERTY_DEFINITION('pmi validation property','',#612);
#15=PROPERTY_DEFINITION('pmi validation property','',#612);
#16=VALUE_REPRESENTATION_ITEM('number of annotations',COUNT_MEASURE(0.));
#17=VALUE_REPRESENTATION_ITEM('number of views',COUNT_MEASURE(0.));
#18=SHAPE_REPRESENTATION_RELATIONSHIP('','',#345,#19);
#19=ADVANCED_BREP_SHAPE_REPRESENTATION('',(#343),#607);
#20=CYLINDRICAL_SURFACE('',#379,9.3155);
#21=CYLINDRICAL_SURFACE('',#383,7.15);
#22=B_SPLINE_CURVE_WITH_KNOTS('',3,(#511,#512,#513,#514),.UNSPECIFIED.,
 .F.,.F.,(4,4),(0.0219892374824044,0.0289754460569791),.UNSPECIFIED.);
#23=B_SPLINE_CURVE_WITH_KNOTS('',3,(#516,#517,#518,#519),.UNSPECIFIED.,
 .F.,.F.,(4,4),(0.014999525759085,0.0219892374824044),.UNSPECIFIED.);
#24=B_SPLINE_CURVE_WITH_KNOTS('',3,(#523,#524,#525,#526),.UNSPECIFIED.,
 .F.,.F.,(4,4),(0.00695202664876518,0.0138778212823837),.UNSPECIFIED.);
#25=B_SPLINE_CURVE_WITH_KNOTS('',3,(#528,#529,#530,#531),.UNSPECIFIED.,
 .F.,.F.,(4,4),(2.380729678852E-7,0.00695202664876518),.UNSPECIFIED.);
#26=B_SPLINE_CURVE_WITH_KNOTS('',3,(#535,#536,#537,#538),.UNSPECIFIED.,
 .F.,.F.,(4,4),(0.00695202664876519,0.0138778212823837),.UNSPECIFIED.);
#27=B_SPLINE_CURVE_WITH_KNOTS('',3,(#540,#541,#542,#543),.UNSPECIFIED.,
 .F.,.F.,(4,4),(2.38072967886991E-7,0.00695202664876519),.UNSPECIFIED.);
#28=B_SPLINE_CURVE_WITH_KNOTS('',3,(#547,#548,#549,#550),.UNSPECIFIED.,
 .F.,.F.,(4,4),(0.0219892374824044,0.0289754460569791),.UNSPECIFIED.);
#29=B_SPLINE_CURVE_WITH_KNOTS('',3,(#552,#553,#554,#555),.UNSPECIFIED.,
 .F.,.F.,(4,4),(0.014999525759085,0.0219892374824044),.UNSPECIFIED.);
#30=B_SPLINE_CURVE_WITH_KNOTS('',3,(#559,#560,#561,#562),.UNSPECIFIED.,
 .F.,.F.,(4,4),(0.00695202664876518,0.0138778212823837),.UNSPECIFIED.);
#31=B_SPLINE_CURVE_WITH_KNOTS('',3,(#564,#565,#566,#567),.UNSPECIFIED.,
 .F.,.F.,(4,4),(2.38072967885314E-7,0.00695202664876518),.UNSPECIFIED.);
#32=B_SPLINE_CURVE_WITH_KNOTS('',3,(#569,#570,#571,#572),.UNSPECIFIED.,
 .F.,.F.,(4,4),(0.00695202664876519,0.0138778212823837),.UNSPECIFIED.);
#33=B_SPLINE_CURVE_WITH_KNOTS('',3,(#574,#575,#576,#577),.UNSPECIFIED.,
 .F.,.F.,(4,4),(2.38072967886991E-7,0.00695202664876519),.UNSPECIFIED.);
#34=CONICAL_SURFACE('',#351,10.5796056947806,0.0312094049979788);
#35=CONICAL_SURFACE('',#353,10.0816727386062,0.785398163397448);
#36=CONICAL_SURFACE('',#363,11.9,1.0471975511966);
#37=CONICAL_SURFACE('',#365,11.9,1.0471975511966);
#38=CONICAL_SURFACE('',#367,11.9,1.0471975511966);
#39=CONICAL_SURFACE('',#369,11.9,1.0471975511966);
#40=CONICAL_SURFACE('',#371,11.9,1.0471975511966);
#41=CONICAL_SURFACE('',#376,11.9,1.0471975511966);
#42=CONICAL_SURFACE('',#377,10.4775,0.785398163397446);
#43=CONICAL_SURFACE('',#381,9.3155,1.0471975511966);
#44=CONICAL_SURFACE('',#385,7.15,0.523598775598299);
#45=TOROIDAL_SURFACE('',#349,11.17931351041,0.599999999999999);
#46=LINE('',#482,#58);
#47=LINE('',#485,#59);
#48=LINE('',#487,#60);
#49=LINE('',#489,#61);
#50=LINE('',#491,#62);
#51=LINE('',#493,#63);
#52=LINE('',#507,#64);
#53=LINE('',#509,#65);
#54=LINE('',#521,#66);
#55=LINE('',#533,#67);
#56=LINE('',#545,#68);
#57=LINE('',#557,#69);
#58=VECTOR('',#392,1000.);
#59=VECTOR('',#393,1000.);
#60=VECTOR('',#394,1000.);
#61=VECTOR('',#395,1000.);
#62=VECTOR('',#396,1000.);
#63=VECTOR('',#397,1000.);
#64=VECTOR('',#416,1000.);
#65=VECTOR('',#417,1000.);
#66=VECTOR('',#420,1000.);
#67=VECTOR('',#423,1000.);
#68=VECTOR('',#426,1000.);
#69=VECTOR('',#429,1000.);
#70=ORIENTED_EDGE('',*,*,#150,.F.);
#71=ORIENTED_EDGE('',*,*,#151,.F.);
#72=ORIENTED_EDGE('',*,*,#152,.F.);
#73=ORIENTED_EDGE('',*,*,#153,.F.);
#74=ORIENTED_EDGE('',*,*,#154,.F.);
#75=ORIENTED_EDGE('',*,*,#155,.T.);
#76=ORIENTED_EDGE('',*,*,#156,.F.);
#77=ORIENTED_EDGE('',*,*,#157,.F.);
#78=ORIENTED_EDGE('',*,*,#150,.T.);
#79=ORIENTED_EDGE('',*,*,#158,.F.);
#80=ORIENTED_EDGE('',*,*,#157,.T.);
#81=ORIENTED_EDGE('',*,*,#159,.F.);
#82=ORIENTED_EDGE('',*,*,#158,.T.);
#83=ORIENTED_EDGE('',*,*,#160,.F.);
#84=ORIENTED_EDGE('',*,*,#159,.T.);
#85=ORIENTED_EDGE('',*,*,#161,.T.);
#86=ORIENTED_EDGE('',*,*,#152,.T.);
#87=ORIENTED_EDGE('',*,*,#162,.F.);
#88=ORIENTED_EDGE('',*,*,#163,.F.);
#89=ORIENTED_EDGE('',*,*,#164,.F.);
#90=ORIENTED_EDGE('',*,*,#165,.T.);
#91=ORIENTED_EDGE('',*,*,#153,.T.);
#92=ORIENTED_EDGE('',*,*,#161,.F.);
#93=ORIENTED_EDGE('',*,*,#166,.F.);
#94=ORIENTED_EDGE('',*,*,#167,.F.);
#95=ORIENTED_EDGE('',*,*,#168,.T.);
#96=ORIENTED_EDGE('',*,*,#154,.T.);
#97=ORIENTED_EDGE('',*,*,#165,.F.);
#98=ORIENTED_EDGE('',*,*,#169,.F.);
#99=ORIENTED_EDGE('',*,*,#170,.F.);
#100=ORIENTED_EDGE('',*,*,#171,.T.);
#101=ORIENTED_EDGE('',*,*,#155,.F.);
#102=ORIENTED_EDGE('',*,*,#168,.F.);
#103=ORIENTED_EDGE('',*,*,#172,.F.);
#104=ORIENTED_EDGE('',*,*,#173,.F.);
#105=ORIENTED_EDGE('',*,*,#174,.T.);
#106=ORIENTED_EDGE('',*,*,#156,.T.);
#107=ORIENTED_EDGE('',*,*,#171,.F.);
#108=ORIENTED_EDGE('',*,*,#175,.F.);
#109=ORIENTED_EDGE('',*,*,#176,.F.);
#110=ORIENTED_EDGE('',*,*,#162,.T.);
#111=ORIENTED_EDGE('',*,*,#151,.T.);
#112=ORIENTED_EDGE('',*,*,#174,.F.);
#113=ORIENTED_EDGE('',*,*,#177,.F.);
#114=ORIENTED_EDGE('',*,*,#178,.F.);
#115=ORIENTED_EDGE('',*,*,#175,.T.);
#116=ORIENTED_EDGE('',*,*,#173,.T.);
#117=ORIENTED_EDGE('',*,*,#179,.T.);
#118=ORIENTED_EDGE('',*,*,#180,.T.);
#119=ORIENTED_EDGE('',*,*,#163,.T.);
#120=ORIENTED_EDGE('',*,*,#178,.T.);
#121=ORIENTED_EDGE('',*,*,#181,.T.);
#122=ORIENTED_EDGE('',*,*,#166,.T.);
#123=ORIENTED_EDGE('',*,*,#164,.T.);
#124=ORIENTED_EDGE('',*,*,#182,.T.);
#125=ORIENTED_EDGE('',*,*,#169,.T.);
#126=ORIENTED_EDGE('',*,*,#167,.T.);
#127=ORIENTED_EDGE('',*,*,#172,.T.);
#128=ORIENTED_EDGE('',*,*,#170,.T.);
#129=ORIENTED_EDGE('',*,*,#183,.T.);
#130=ORIENTED_EDGE('',*,*,#179,.F.);
#131=ORIENTED_EDGE('',*,*,#183,.F.);
#132=ORIENTED_EDGE('',*,*,#182,.F.);
#133=ORIENTED_EDGE('',*,*,#181,.F.);
#134=ORIENTED_EDGE('',*,*,#180,.F.);
#135=ORIENTED_EDGE('',*,*,#184,.F.);
#136=ORIENTED_EDGE('',*,*,#185,.T.);
#137=ORIENTED_EDGE('',*,*,#177,.T.);
#138=ORIENTED_EDGE('',*,*,#176,.T.);
#139=ORIENTED_EDGE('',*,*,#184,.T.);
#140=ORIENTED_EDGE('',*,*,#186,.T.);
#141=ORIENTED_EDGE('',*,*,#185,.F.);
#142=ORIENTED_EDGE('',*,*,#187,.T.);
#143=ORIENTED_EDGE('',*,*,#186,.F.);
#144=ORIENTED_EDGE('',*,*,#188,.T.);
#145=ORIENTED_EDGE('',*,*,#187,.F.);
#146=ORIENTED_EDGE('',*,*,#189,.T.);
#147=ORIENTED_EDGE('',*,*,#188,.F.);
#148=ORIENTED_EDGE('',*,*,#160,.T.);
#149=ORIENTED_EDGE('',*,*,#189,.F.);
#150=EDGE_CURVE('',#190,#190,#218,.T.);
#151=EDGE_CURVE('',#191,#192,#46,.T.);
#152=EDGE_CURVE('',#193,#191,#47,.T.);
#153=EDGE_CURVE('',#194,#193,#48,.T.);
#154=EDGE_CURVE('',#195,#194,#49,.T.);
#155=EDGE_CURVE('',#195,#196,#50,.T.);
#156=EDGE_CURVE('',#192,#196,#51,.T.);
#157=EDGE_CURVE('',#197,#197,#219,.T.);
#158=EDGE_CURVE('',#198,#198,#220,.T.);
#159=EDGE_CURVE('',#199,#199,#221,.T.);
#160=EDGE_CURVE('',#200,#200,#222,.T.);
#161=EDGE_CURVE('',#201,#193,#52,.T.);
#162=EDGE_CURVE('',#202,#191,#53,.T.);
#163=EDGE_CURVE('',#203,#202,#22,.T.);
#164=EDGE_CURVE('',#201,#203,#23,.T.);
#165=EDGE_CURVE('',#204,#194,#54,.T.);
#166=EDGE_CURVE('',#205,#201,#24,.T.);
#167=EDGE_CURVE('',#204,#205,#25,.T.);
#168=EDGE_CURVE('',#206,#195,#55,.T.);
#169=EDGE_CURVE('',#207,#204,#26,.T.);
#170=EDGE_CURVE('',#206,#207,#27,.T.);
#171=EDGE_CURVE('',#208,#196,#56,.T.);
#172=EDGE_CURVE('',#209,#206,#28,.T.);
#173=EDGE_CURVE('',#208,#209,#29,.T.);
#174=EDGE_CURVE('',#210,#192,#57,.T.);
#175=EDGE_CURVE('',#211,#208,#30,.T.);
#176=EDGE_CURVE('',#210,#211,#31,.T.);
#177=EDGE_CURVE('',#212,#210,#32,.T.);
#178=EDGE_CURVE('',#202,#212,#33,.T.);
#179=EDGE_CURVE('',#209,#211,#223,.T.);
#180=EDGE_CURVE('',#212,#203,#224,.T.);
#181=EDGE_CURVE('',#203,#205,#225,.T.);
#182=EDGE_CURVE('',#205,#207,#226,.T.);
#183=EDGE_CURVE('',#207,#209,#227,.T.);
#184=EDGE_CURVE('',#211,#212,#228,.T.);
#185=EDGE_CURVE('',#213,#213,#229,.T.);
#186=EDGE_CURVE('',#214,#214,#230,.T.);
#187=EDGE_CURVE('',#215,#215,#231,.T.);
#188=EDGE_CURVE('',#216,#216,#232,.T.);
#189=EDGE_CURVE('',#217,#217,#233,.T.);
#190=VERTEX_POINT('',#481);
#191=VERTEX_POINT('',#483);
#192=VERTEX_POINT('',#484);
#193=VERTEX_POINT('',#486);
#194=VERTEX_POINT('',#488);
#195=VERTEX_POINT('',#490);
#196=VERTEX_POINT('',#492);
#197=VERTEX_POINT('',#496);
#198=VERTEX_POINT('',#499);
#199=VERTEX_POINT('',#502);
#200=VERTEX_POINT('',#505);
#201=VERTEX_POINT('',#508);
#202=VERTEX_POINT('',#510);
#203=VERTEX_POINT('',#515);
#204=VERTEX_POINT('',#522);
#205=VERTEX_POINT('',#527);
#206=VERTEX_POINT('',#534);
#207=VERTEX_POINT('',#539);
#208=VERTEX_POINT('',#546);
#209=VERTEX_POINT('',#551);
#210=VERTEX_POINT('',#558);
#211=VERTEX_POINT('',#563);
#212=VERTEX_POINT('',#573);
#213=VERTEX_POINT('',#591);
#214=VERTEX_POINT('',#595);
#215=VERTEX_POINT('',#598);
#216=VERTEX_POINT('',#601);
#217=VERTEX_POINT('',#604);
#218=CIRCLE('',#348,11.17931351041);
#219=CIRCLE('',#350,10.5796056947806);
#220=CIRCLE('',#352,10.0816727386062);
#221=CIRCLE('',#354,9.01234997170007);
#222=CIRCLE('',#356,8.0737604307034);
#223=CIRCLE('',#364,11.9);
#224=CIRCLE('',#366,11.9);
#225=CIRCLE('',#368,11.9);
#226=CIRCLE('',#370,11.9);
#227=CIRCLE('',#372,11.9);
#228=CIRCLE('',#374,11.9);
#229=CIRCLE('',#375,10.4775);
#230=CIRCLE('',#378,9.3155);
#231=CIRCLE('',#380,9.3155);
#232=CIRCLE('',#382,7.15);
#233=CIRCLE('',#384,7.15);
#234=EDGE_LOOP('',(#70));
#235=EDGE_LOOP('',(#71,#72,#73,#74,#75,#76));
#236=EDGE_LOOP('',(#77));
#237=EDGE_LOOP('',(#78));
#238=EDGE_LOOP('',(#79));
#239=EDGE_LOOP('',(#80));
#240=EDGE_LOOP('',(#81));
#241=EDGE_LOOP('',(#82));
#242=EDGE_LOOP('',(#83));
#243=EDGE_LOOP('',(#84));
#244=EDGE_LOOP('',(#85,#86,#87,#88,#89));
#245=EDGE_LOOP('',(#90,#91,#92,#93,#94));
#246=EDGE_LOOP('',(#95,#96,#97,#98,#99));
#247=EDGE_LOOP('',(#100,#101,#102,#103,#104));
#248=EDGE_LOOP('',(#105,#106,#107,#108,#109));
#249=EDGE_LOOP('',(#110,#111,#112,#113,#114));
#250=EDGE_LOOP('',(#115,#116,#117));
#251=EDGE_LOOP('',(#118,#119,#120));
#252=EDGE_LOOP('',(#121,#122,#123));
#253=EDGE_LOOP('',(#124,#125,#126));
#254=EDGE_LOOP('',(#127,#128,#129));
#255=EDGE_LOOP('',(#130,#131,#132,#133,#134,#135));
#256=EDGE_LOOP('',(#136));
#257=EDGE_LOOP('',(#137,#138,#139));
#258=EDGE_LOOP('',(#140));
#259=EDGE_LOOP('',(#141));
#260=EDGE_LOOP('',(#142));
#261=EDGE_LOOP('',(#143));
#262=EDGE_LOOP('',(#144));
#263=EDGE_LOOP('',(#145));
#264=EDGE_LOOP('',(#146));
#265=EDGE_LOOP('',(#147));
#266=EDGE_LOOP('',(#148));
#267=EDGE_LOOP('',(#149));
#268=FACE_BOUND('',#234,.T.);
#269=FACE_BOUND('',#235,.T.);
#270=FACE_BOUND('',#236,.T.);
#271=FACE_BOUND('',#237,.T.);
#272=FACE_BOUND('',#238,.T.);
#273=FACE_BOUND('',#239,.T.);
#274=FACE_BOUND('',#240,.T.);
#275=FACE_BOUND('',#241,.T.);
#276=FACE_BOUND('',#242,.T.);
#277=FACE_BOUND('',#243,.T.);
#278=FACE_BOUND('',#244,.T.);
#279=FACE_BOUND('',#245,.T.);
#280=FACE_BOUND('',#246,.T.);
#281=FACE_BOUND('',#247,.T.);
#282=FACE_BOUND('',#248,.T.);
#283=FACE_BOUND('',#249,.T.);
#284=FACE_BOUND('',#250,.T.);
#285=FACE_BOUND('',#251,.T.);
#286=FACE_BOUND('',#252,.T.);
#287=FACE_BOUND('',#253,.T.);
#288=FACE_BOUND('',#254,.T.);
#289=FACE_BOUND('',#255,.T.);
#290=FACE_BOUND('',#256,.T.);
#291=FACE_BOUND('',#257,.T.);
#292=FACE_BOUND('',#258,.T.);
#293=FACE_BOUND('',#259,.T.);
#294=FACE_BOUND('',#260,.T.);
#295=FACE_BOUND('',#261,.T.);
#296=FACE_BOUND('',#262,.T.);
#297=FACE_BOUND('',#263,.T.);
#298=FACE_BOUND('',#264,.T.);
#299=FACE_BOUND('',#265,.T.);
#300=FACE_BOUND('',#266,.T.);
#301=FACE_BOUND('',#267,.T.);
#302=PLANE('',#347);
#303=PLANE('',#355);
#304=PLANE('',#357);
#305=PLANE('',#358);
#306=PLANE('',#359);
#307=PLANE('',#360);
#308=PLANE('',#361);
#309=PLANE('',#362);
#310=PLANE('',#373);
#311=ADVANCED_FACE('',(#268,#269),#302,.F.);
#312=ADVANCED_FACE('',(#270,#271),#45,.F.);
#313=ADVANCED_FACE('',(#272,#273),#34,.T.);
#314=ADVANCED_FACE('',(#274,#275),#35,.T.);
#315=ADVANCED_FACE('',(#276,#277),#303,.F.);
#316=ADVANCED_FACE('',(#278),#304,.F.);
#317=ADVANCED_FACE('',(#279),#305,.F.);
#318=ADVANCED_FACE('',(#280),#306,.F.);
#319=ADVANCED_FACE('',(#281),#307,.F.);
#320=ADVANCED_FACE('',(#282),#308,.F.);
#321=ADVANCED_FACE('',(#283),#309,.F.);
#322=ADVANCED_FACE('',(#284),#36,.T.);
#323=ADVANCED_FACE('',(#285),#37,.T.);
#324=ADVANCED_FACE('',(#286),#38,.T.);
#325=ADVANCED_FACE('',(#287),#39,.T.);
#326=ADVANCED_FACE('',(#288),#40,.T.);
#327=ADVANCED_FACE('',(#289,#290),#310,.F.);
#328=ADVANCED_FACE('',(#291),#41,.T.);
#329=ADVANCED_FACE('',(#292,#293),#42,.F.);
#330=ADVANCED_FACE('',(#294,#295),#20,.F.);
#331=ADVANCED_FACE('',(#296,#297),#43,.F.);
#332=ADVANCED_FACE('',(#298,#299),#21,.F.);
#333=ADVANCED_FACE('',(#300,#301),#44,.F.);
#334=CLOSED_SHELL('',(#311,#312,#313,#314,#315,#316,#317,#318,#319,#320,
#321,#322,#323,#324,#325,#326,#327,#328,#329,#330,#331,#332,#333));
#335=STYLED_ITEM('',(#336),#343);
#336=PRESENTATION_STYLE_ASSIGNMENT((#337));
#337=SURFACE_STYLE_USAGE(.BOTH.,#338);
#338=SURFACE_SIDE_STYLE('',(#339));
#339=SURFACE_STYLE_FILL_AREA(#340);
#340=FILL_AREA_STYLE('',(#341));
#341=FILL_AREA_STYLE_COLOUR('',#342);
#342=COLOUR_RGB('',0.689999997615814,0.689999997615814,0.689999997615814);
#343=MANIFOLD_SOLID_BREP('9627 AD-1/2NPT-G1/2-I',#334);
#344=SHAPE_DEFINITION_REPRESENTATION(#612,#345);
#345=SHAPE_REPRESENTATION('9627 AD-1/2NPT-G1/2-I',(#346),#607);
#346=AXIS2_PLACEMENT_3D('',#478,#386,#387);
#347=AXIS2_PLACEMENT_3D('',#479,#388,#389);
#348=AXIS2_PLACEMENT_3D('',#480,#390,#391);
#349=AXIS2_PLACEMENT_3D('',#494,#398,#399);
#350=AXIS2_PLACEMENT_3D('',#495,#400,#401);
#351=AXIS2_PLACEMENT_3D('',#497,#402,#403);
#352=AXIS2_PLACEMENT_3D('',#498,#404,#405);
#353=AXIS2_PLACEMENT_3D('',#500,#406,#407);
#354=AXIS2_PLACEMENT_3D('',#501,#408,#409);
#355=AXIS2_PLACEMENT_3D('',#503,#410,#411);
#356=AXIS2_PLACEMENT_3D('',#504,#412,#413);
#357=AXIS2_PLACEMENT_3D('',#506,#414,#415);
#358=AXIS2_PLACEMENT_3D('',#520,#418,#419);
#359=AXIS2_PLACEMENT_3D('',#532,#421,#422);
#360=AXIS2_PLACEMENT_3D('',#544,#424,#425);
#361=AXIS2_PLACEMENT_3D('',#556,#427,#428);
#362=AXIS2_PLACEMENT_3D('',#568,#430,#431);
#363=AXIS2_PLACEMENT_3D('',#578,#432,#433);
#364=AXIS2_PLACEMENT_3D('',#579,#434,#435);
#365=AXIS2_PLACEMENT_3D('',#580,#436,#437);
#366=AXIS2_PLACEMENT_3D('',#581,#438,#439);
#367=AXIS2_PLACEMENT_3D('',#582,#440,#441);
#368=AXIS2_PLACEMENT_3D('',#583,#442,#443);
#369=AXIS2_PLACEMENT_3D('',#584,#444,#445);
#370=AXIS2_PLACEMENT_3D('',#585,#446,#447);
#371=AXIS2_PLACEMENT_3D('',#586,#448,#449);
#372=AXIS2_PLACEMENT_3D('',#587,#450,#451);
#373=AXIS2_PLACEMENT_3D('',#588,#452,#453);
#374=AXIS2_PLACEMENT_3D('',#589,#454,#455);
#375=AXIS2_PLACEMENT_3D('',#590,#456,#457);
#376=AXIS2_PLACEMENT_3D('',#592,#458,#459);
#377=AXIS2_PLACEMENT_3D('',#593,#460,#461);
#378=AXIS2_PLACEMENT_3D('',#594,#462,#463);
#379=AXIS2_PLACEMENT_3D('',#596,#464,#465);
#380=AXIS2_PLACEMENT_3D('',#597,#466,#467);
#381=AXIS2_PLACEMENT_3D('',#599,#468,#469);
#382=AXIS2_PLACEMENT_3D('',#600,#470,#471);
#383=AXIS2_PLACEMENT_3D('',#602,#472,#473);
#384=AXIS2_PLACEMENT_3D('',#603,#474,#475);
#385=AXIS2_PLACEMENT_3D('',#605,#476,#477);
#386=DIRECTION('',(0.,0.,1.));
#387=DIRECTION('',(1.,0.,0.));
#388=DIRECTION('',(0.,1.,0.));
#389=DIRECTION('',(0.,0.,1.));
#390=DIRECTION('',(0.,-1.,0.));
#391=DIRECTION('',(0.,0.,-1.));
#392=DIRECTION('',(0.866025403784439,0.,0.5));
#393=DIRECTION('',(0.,0.,1.));
#394=DIRECTION('',(-0.866025403784439,0.,0.5));
#395=DIRECTION('',(-0.866025403784439,0.,-0.5));
#396=DIRECTION('',(0.,0.,1.));
#397=DIRECTION('',(0.866025403784439,0.,-0.5));
#398=DIRECTION('',(0.,-1.,0.));
#399=DIRECTION('',(0.,0.,-1.));
#400=DIRECTION('',(0.,-1.,0.));
#401=DIRECTION('',(0.,0.,-1.));
#402=DIRECTION('',(0.,1.,0.));
#403=DIRECTION('',(0.,0.,1.));
#404=DIRECTION('',(0.,-1.,0.));
#405=DIRECTION('',(0.,0.,-1.));
#406=DIRECTION('',(0.,1.,0.));
#407=DIRECTION('',(0.,0.,1.));
#408=DIRECTION('',(0.,-1.,0.));
#409=DIRECTION('',(0.,0.,-1.));
#410=DIRECTION('',(0.,1.,0.));
#411=DIRECTION('',(0.,0.,1.));
#412=DIRECTION('',(0.,-1.,0.));
#413=DIRECTION('',(0.,0.,-1.));
#414=DIRECTION('',(1.,0.,0.));
#415=DIRECTION('',(0.,0.,-1.));
#416=DIRECTION('',(0.,-1.,0.));
#417=DIRECTION('',(0.,-1.,0.));
#418=DIRECTION('',(0.5,0.,0.866025403784439));
#419=DIRECTION('',(0.866025403784439,0.,-0.5));
#420=DIRECTION('',(0.,-1.,0.));
#421=DIRECTION('',(-0.5,0.,0.866025403784439));
#422=DIRECTION('',(0.866025403784439,0.,0.5));
#423=DIRECTION('',(0.,-1.,0.));
#424=DIRECTION('',(-1.,0.,0.));
#425=DIRECTION('',(0.,0.,1.));
#426=DIRECTION('',(0.,-1.,0.));
#427=DIRECTION('',(-0.5,0.,-0.866025403784439));
#428=DIRECTION('',(-0.866025403784439,0.,0.5));
#429=DIRECTION('',(0.,-1.,0.));
#430=DIRECTION('',(0.5,0.,-0.866025403784439));
#431=DIRECTION('',(-0.866025403784439,0.,-0.5));
#432=DIRECTION('',(0.,-1.,0.));
#433=DIRECTION('',(0.,0.,-1.));
#434=DIRECTION('',(0.,-1.,0.));
#435=DIRECTION('',(0.,0.,-1.));
#436=DIRECTION('',(0.,-1.,0.));
#437=DIRECTION('',(0.,0.,-1.));
#438=DIRECTION('',(0.,-1.,0.));
#439=DIRECTION('',(0.,0.,-1.));
#440=DIRECTION('',(0.,-1.,0.));
#441=DIRECTION('',(0.,0.,-1.));
#442=DIRECTION('',(0.,-1.,0.));
#443=DIRECTION('',(0.,0.,-1.));
#444=DIRECTION('',(0.,-1.,0.));
#445=DIRECTION('',(0.,0.,-1.));
#446=DIRECTION('',(0.,-1.,0.));
#447=DIRECTION('',(0.,0.,-1.));
#448=DIRECTION('',(0.,-1.,0.));
#449=DIRECTION('',(0.,0.,-1.));
#450=DIRECTION('',(0.,-1.,0.));
#451=DIRECTION('',(0.,0.,-1.));
#452=DIRECTION('',(0.,-1.,0.));
#453=DIRECTION('',(0.,0.,-1.));
#454=DIRECTION('',(0.,-1.,0.));
#455=DIRECTION('',(0.,0.,-1.));
#456=DIRECTION('',(0.,-1.,0.));
#457=DIRECTION('',(0.,0.,-1.));
#458=DIRECTION('',(0.,-1.,0.));
#459=DIRECTION('',(0.,0.,-1.));
#460=DIRECTION('',(0.,1.,0.));
#461=DIRECTION('',(0.,0.,1.));
#462=DIRECTION('',(0.,-1.,0.));
#463=DIRECTION('',(0.,0.,-1.));
#464=DIRECTION('',(0.,-1.,0.));
#465=DIRECTION('',(0.,0.,-1.));
#466=DIRECTION('',(0.,-1.,0.));
#467=DIRECTION('',(0.,0.,-1.));
#468=DIRECTION('',(0.,1.,0.));
#469=DIRECTION('',(0.,0.,1.));
#470=DIRECTION('',(0.,-1.,0.));
#471=DIRECTION('',(0.,0.,-1.));
#472=DIRECTION('',(0.,-1.,0.));
#473=DIRECTION('',(0.,0.,-1.));
#474=DIRECTION('',(0.,-1.,0.));
#475=DIRECTION('',(0.,0.,-1.));
#476=DIRECTION('',(0.,-1.,0.));
#477=DIRECTION('',(0.,0.,-1.));
#478=CARTESIAN_POINT('',(0.,0.,0.));
#479=CARTESIAN_POINT('',(14.28,0.,0.));
#480=CARTESIAN_POINT('',(0.,0.,0.));
#481=CARTESIAN_POINT('',(0.,0.,-11.17931351041));
#482=CARTESIAN_POINT('',(-11.9,0.,6.87046820335655));
#483=CARTESIAN_POINT('',(-11.9,0.,6.87046820335655));
#484=CARTESIAN_POINT('',(0.,0.,13.7409364067131));
#485=CARTESIAN_POINT('',(-11.9,0.,-6.87046820335655));
#486=CARTESIAN_POINT('',(-11.9,0.,-6.87046820335655));
#487=CARTESIAN_POINT('',(0.,0.,-13.7409364067131));
#488=CARTESIAN_POINT('',(0.,0.,-13.7409364067131));
#489=CARTESIAN_POINT('',(11.9,0.,-6.87046820335655));
#490=CARTESIAN_POINT('',(11.9,0.,-6.87046820335655));
#491=CARTESIAN_POINT('',(11.9,0.,0.));
#492=CARTESIAN_POINT('',(11.9,0.,6.87046820335655));
#493=CARTESIAN_POINT('',(0.,0.,13.7409364067131));
#494=CARTESIAN_POINT('',(0.,-0.599999999999999,0.));
#495=CARTESIAN_POINT('',(0.,-0.58127739673336,0.));
#496=CARTESIAN_POINT('',(0.,-0.58127739673336,-10.5796056947806));
#497=CARTESIAN_POINT('',(0.,-0.58127739673336,0.));
#498=CARTESIAN_POINT('',(0.,-16.5306772330938,0.));
#499=CARTESIAN_POINT('',(0.,-16.5306772330938,-10.0816727386062));
#500=CARTESIAN_POINT('',(0.,-16.5306772330938,0.));
#501=CARTESIAN_POINT('',(0.,-17.6,0.));
#502=CARTESIAN_POINT('',(0.,-17.6,-9.01234997170007));
#503=CARTESIAN_POINT('',(9.01234997170007,-17.6,0.));
#504=CARTESIAN_POINT('',(0.,-17.6,0.));
#505=CARTESIAN_POINT('',(0.,-17.6,-8.0737604307034));
#506=CARTESIAN_POINT('',(-11.9,19.,-6.87046820335655));
#507=CARTESIAN_POINT('',(-11.9,19.,-6.87046820335655));
#508=CARTESIAN_POINT('',(-11.9,17.9371348700232,-6.87046820335655));
#509=CARTESIAN_POINT('',(-11.9,19.,6.87046820335655));
#510=CARTESIAN_POINT('',(-11.9,17.9371348700232,6.87046820335655));
#511=CARTESIAN_POINT('',(-11.9,19.,2.00159607199585E-16));
#512=CARTESIAN_POINT('',(-11.9,19.,2.35194136343419));
#513=CARTESIAN_POINT('',(-11.9,18.5825438122572,4.63470604413942));
#514=CARTESIAN_POINT('',(-11.9,17.9371348700232,6.87046820335654));
#515=CARTESIAN_POINT('',(-11.9,19.,0.));
#516=CARTESIAN_POINT('',(-11.9,17.9371348700232,-6.87046820335655));
#517=CARTESIAN_POINT('',(-11.9,18.5832729900148,-4.63218009829179));
#518=CARTESIAN_POINT('',(-11.9,19.,-2.3531207156317));
#519=CARTESIAN_POINT('',(-11.9,19.,1.46945807702456E-14));
#520=CARTESIAN_POINT('',(0.,19.,-13.7409364067131));
#521=CARTESIAN_POINT('',(0.,19.,-13.7409364067131));
#522=CARTESIAN_POINT('',(0.,17.9371348700232,-13.7409364067131));
#523=CARTESIAN_POINT('',(-5.95,19.,-10.3057023050348));
#524=CARTESIAN_POINT('',(-7.96982652790639,19.,-9.13955491543172));
#525=CARTESIAN_POINT('',(-9.95817744494017,18.5844090550433,-7.99157997823882));
#526=CARTESIAN_POINT('',(-11.9,17.9371348700234,-6.87046820335653));
#527=CARTESIAN_POINT('',(-5.95,19.,-10.3057023050348));
#528=CARTESIAN_POINT('',(3.69006801544039E-14,17.9371348700235,-13.7409364067131));
#529=CARTESIAN_POINT('',(-1.94668386097435,18.5860294903483,-12.6170179555525));
#530=CARTESIAN_POINT('',(-3.9225926446572,19.,-11.476226487399));
#531=CARTESIAN_POINT('',(-5.95,19.,-10.3057023050348));
#532=CARTESIAN_POINT('',(11.9,19.,-6.87046820335655));
#533=CARTESIAN_POINT('',(11.9,19.,-6.87046820335655));
#534=CARTESIAN_POINT('',(11.9,17.9371348700232,-6.87046820335655));
#535=CARTESIAN_POINT('',(5.95,19.,-10.3057023050348));
#536=CARTESIAN_POINT('',(3.93017347209361,19.,-11.4718496946379));
#537=CARTESIAN_POINT('',(1.94182255505982,18.5844090550433,-12.6198246318308));
#538=CARTESIAN_POINT('',(-2.38078805440477E-14,17.9371348700234,-13.7409364067131));
#539=CARTESIAN_POINT('',(5.95,19.,-10.3057023050348));
#540=CARTESIAN_POINT('',(11.9,17.9371348700235,-6.87046820335653));
#541=CARTESIAN_POINT('',(9.95331613902565,18.5860294903483,-7.99438665451719));
#542=CARTESIAN_POINT('',(7.9774073553428,19.,-9.13517812267062));
#543=CARTESIAN_POINT('',(5.95,19.,-10.3057023050348));
#544=CARTESIAN_POINT('',(11.9,19.,6.87046820335655));
#545=CARTESIAN_POINT('',(11.9,19.,6.87046820335655));
#546=CARTESIAN_POINT('',(11.9,17.9371348700232,6.87046820335655));
#547=CARTESIAN_POINT('',(11.9,19.,-2.00159607199585E-16));
#548=CARTESIAN_POINT('',(11.9,19.,-2.35194136343419));
#549=CARTESIAN_POINT('',(11.9,18.5825438122572,-4.63470604413942));
#550=CARTESIAN_POINT('',(11.9,17.9371348700232,-6.87046820335654));
#551=CARTESIAN_POINT('',(11.9,19.,0.));
#552=CARTESIAN_POINT('',(11.9,17.9371348700232,6.87046820335655));
#553=CARTESIAN_POINT('',(11.9,18.5832729900148,4.63218009829179));
#554=CARTESIAN_POINT('',(11.9,19.,2.3531207156317));
#555=CARTESIAN_POINT('',(11.9,19.,-1.46945807702456E-14));
#556=CARTESIAN_POINT('',(0.,19.,13.7409364067131));
#557=CARTESIAN_POINT('',(0.,19.,13.7409364067131));
#558=CARTESIAN_POINT('',(1.80990241663352E-16,17.9371348700232,13.7409364067131));
#559=CARTESIAN_POINT('',(5.95,19.,10.3057023050348));
#560=CARTESIAN_POINT('',(7.96982652790639,19.,9.13955491543172));
#561=CARTESIAN_POINT('',(9.95817744494017,18.5844090550433,7.99157997823882));
#562=CARTESIAN_POINT('',(11.9,17.9371348700234,6.87046820335653));
#563=CARTESIAN_POINT('',(5.95,19.,10.3057023050348));
#564=CARTESIAN_POINT('',(-3.68303044550685E-14,17.9371348700235,13.7409364067131));
#565=CARTESIAN_POINT('',(1.94668386097435,18.5860294903483,12.6170179555525));
#566=CARTESIAN_POINT('',(3.9225926446572,19.,11.476226487399));
#567=CARTESIAN_POINT('',(5.95,19.,10.3057023050348));
#568=CARTESIAN_POINT('',(-11.9,19.,6.87046820335655));
#569=CARTESIAN_POINT('',(-5.95,19.,10.3057023050348));
#570=CARTESIAN_POINT('',(-3.93017347209361,19.,11.4718496946379));
#571=CARTESIAN_POINT('',(-1.94182255505982,18.5844090550433,12.6198246318308));
#572=CARTESIAN_POINT('',(2.38078805440477E-14,17.9371348700234,13.7409364067131));
#573=CARTESIAN_POINT('',(-5.95,19.,10.3057023050348));
#574=CARTESIAN_POINT('',(-11.9,17.9371348700235,6.87046820335653));
#575=CARTESIAN_POINT('',(-9.95331613902565,18.5860294903483,7.99438665451719));
#576=CARTESIAN_POINT('',(-7.9774073553428,19.,9.13517812267062));
#577=CARTESIAN_POINT('',(-5.95,19.,10.3057023050348));
#578=CARTESIAN_POINT('',(0.,19.,0.));
#579=CARTESIAN_POINT('',(0.,19.,0.));
#580=CARTESIAN_POINT('',(0.,19.,0.));
#581=CARTESIAN_POINT('',(0.,19.,0.));
#582=CARTESIAN_POINT('',(0.,19.,0.));
#583=CARTESIAN_POINT('',(0.,19.,0.));
#584=CARTESIAN_POINT('',(0.,19.,0.));
#585=CARTESIAN_POINT('',(0.,19.,0.));
#586=CARTESIAN_POINT('',(0.,19.,0.));
#587=CARTESIAN_POINT('',(0.,19.,0.));
#588=CARTESIAN_POINT('',(0.,19.,0.));
#589=CARTESIAN_POINT('',(0.,19.,0.));
#590=CARTESIAN_POINT('',(0.,19.,0.));
#591=CARTESIAN_POINT('',(0.,19.,-10.4775));
#592=CARTESIAN_POINT('',(0.,19.,0.));
#593=CARTESIAN_POINT('',(0.,19.,0.));
#594=CARTESIAN_POINT('',(0.,17.838,0.));
#595=CARTESIAN_POINT('',(0.,17.838,-9.3155));
#596=CARTESIAN_POINT('',(0.,-17.6,0.));
#597=CARTESIAN_POINT('',(0.,1.,0.));
#598=CARTESIAN_POINT('',(0.,1.,-9.3155));
#599=CARTESIAN_POINT('',(0.,1.,0.));
#600=CARTESIAN_POINT('',(0.,-0.250252007930135,0.));
#601=CARTESIAN_POINT('',(0.,-0.250252007930135,-7.15));
#602=CARTESIAN_POINT('',(0.,-17.6,0.));
#603=CARTESIAN_POINT('',(0.,-16.,0.));
#604=CARTESIAN_POINT('',(0.,-16.,-7.15));
#605=CARTESIAN_POINT('',(0.,-16.,0.));
#606=MECHANICAL_DESIGN_GEOMETRIC_PRESENTATION_REPRESENTATION('',(#335),
#607);
#607=(
GEOMETRIC_REPRESENTATION_CONTEXT(3)
GLOBAL_UNCERTAINTY_ASSIGNED_CONTEXT((#608))
GLOBAL_UNIT_ASSIGNED_CONTEXT((#611,#610,#609))
REPRESENTATION_CONTEXT('9627 AD-1/2NPT-G1/2-I',
'TOP_LEVEL_ASSEMBLY_PART')
);
#608=UNCERTAINTY_MEASURE_WITH_UNIT(LENGTH_MEASURE(0.005),#611,
'DISTANCE_ACCURACY_VALUE','Maximum Tolerance applied to model');
#609=(
NAMED_UNIT(*)
SI_UNIT($,.STERADIAN.)
SOLID_ANGLE_UNIT()
);
#610=(
NAMED_UNIT(*)
PLANE_ANGLE_UNIT()
SI_UNIT($,.RADIAN.)
);
#611=(
LENGTH_UNIT()
NAMED_UNIT(*)
SI_UNIT(.MILLI.,.METRE.)
);
#612=PRODUCT_DEFINITION_SHAPE('','',#613);
#613=PRODUCT_DEFINITION('','',#615,#614);
#614=PRODUCT_DEFINITION_CONTEXT('',#621,'design');
#615=PRODUCT_DEFINITION_FORMATION_WITH_SPECIFIED_SOURCE('','',#617,
 .NOT_KNOWN.);
#616=PRODUCT_RELATED_PRODUCT_CATEGORY('','',(#617));
#617=PRODUCT('9627 AD-1/2NPT-G1/2-I','9627 AD-1/2NPT-G1/2-I',
'9627 AD-1/2NPT-G1/2-I',(#619));
#618=PRODUCT_CATEGORY('','');
#619=PRODUCT_CONTEXT('',#621,'mechanical');
#620=APPLICATION_PROTOCOL_DEFINITION('international standard',
'automotive_design',2010,#621);
#621=APPLICATION_CONTEXT(
'core data for automotive mechanical design processes');
ENDSEC;
END-ISO-10303-21;
