ISO-10303-21;
HEADER;
/* Generated by software containing ST-Developer
 * from STEP Tools, Inc. (www.steptools.com) 
 */
/* OPTION: using custom renumber hook */

FILE_DESCRIPTION(
/* description */ ('STEP AP214'),
/* implementation_level */ '2;1');

FILE_NAME(
/* name */ '8022483_VABD-17_5-B',
/* time_stamp */ '2024-09-15T17:17:17+02:00',
/* author */ ('License CC BY-ND 4.0'),
/* organization */ ('CADENAS'),
/* preprocessor_version */ 'ST-DEVELOPER v19.3',
/* originating_system */ 'PARTsolutions',
/* authorisation */ '  ');

FILE_SCHEMA (('AUTOMOTIVE_DESIGN {1 0 10303 214 3 1 1}'));
ENDSEC;

DATA;
#10=PROPERTY_DEFINITION_REPRESENTATION(#14,#12);
#11=PROPERTY_DEFINITION_REPRESENTATION(#15,#13);
#12=REPRESENTATION('',(#16),#465);
#13=REPRESENTATION('',(#17),#465);
#14=PROPERTY_DEFINITION('pmi validation property','',#470);
#15=PROPERTY_DEFINITION('pmi validation property','',#470);
#16=VALUE_REPRESENTATION_ITEM('number of annotations',COUNT_MEASURE(0.));
#17=VALUE_REPRESENTATION_ITEM('number of views',COUNT_MEASURE(0.));
#18=SHAPE_REPRESENTATION_RELATIONSHIP('','',#261,#19);
#19=ADVANCED_BREP_SHAPE_REPRESENTATION('',(#259),#465);
#20=CYLINDRICAL_SURFACE('',#281,8.75);
#21=CYLINDRICAL_SURFACE('',#289,8.75);
#22=CONICAL_SURFACE('',#271,8.5786840246914,0.418879020478641);
#23=B_SPLINE_CURVE_WITH_KNOTS('',3,(#386,#387,#388,#389),.UNSPECIFIED.,
 .F.,.F.,(4,4),(0.000294744472832858,0.000393808267396185),
 .UNSPECIFIED.);
#24=B_SPLINE_CURVE_WITH_KNOTS('',3,(#390,#391,#392,#393),.UNSPECIFIED.,
 .F.,.F.,(4,4),(8.12480798433077E-5,0.000180363998968104),.UNSPECIFIED.);
#25=B_SPLINE_CURVE_WITH_KNOTS('',3,(#395,#396,#397,#398),.UNSPECIFIED.,
 .F.,.F.,(4,4),(0.000232289608025661,0.000331318112357507),
 .UNSPECIFIED.);
#26=B_SPLINE_CURVE_WITH_KNOTS('',3,(#402,#403,#404,#405),.UNSPECIFIED.,
 .F.,.F.,(4,4),(0.000132728736879192,0.000231843536886721),
 .UNSPECIFIED.);
#27=B_SPLINE_CURVE_WITH_KNOTS('',3,(#409,#410,#411,#412),.UNSPECIFIED.,
 .F.,.F.,(4,4),(0.0188962404393116,0.0193663932673903),.UNSPECIFIED.);
#28=B_SPLINE_CURVE_WITH_KNOTS('',3,(#416,#417,#418,#419),.UNSPECIFIED.,
 .F.,.F.,(4,4),(0.0187912160781498,0.0192617365300046),.UNSPECIFIED.);
#29=B_SPLINE_CURVE_WITH_KNOTS('',3,(#420,#421,#422,#423),.UNSPECIFIED.,
 .F.,.F.,(4,4),(0.0188962404393115,0.0193663932673902),.UNSPECIFIED.);
#30=B_SPLINE_CURVE_WITH_KNOTS('',3,(#427,#428,#429,#430),.UNSPECIFIED.,
 .F.,.F.,(4,4),(0.0187912160781476,0.0192617365300046),.UNSPECIFIED.);
#31=TOROIDAL_SURFACE('',#267,8.53300675180927,0.0500000000000014);
#32=TOROIDAL_SURFACE('',#269,8.53300675180927,0.0500000000000014);
#33=TOROIDAL_SURFACE('',#277,8.25,0.499999999999999);
#34=TOROIDAL_SURFACE('',#285,8.,0.75);
#35=TOROIDAL_SURFACE('',#291,8.55,0.200000000000001);
#36=CIRCLE('',#264,8.53300675180927);
#37=CIRCLE('',#266,8.53300675180927);
#38=CIRCLE('',#268,8.5786840246914);
#39=CIRCLE('',#270,8.5786840246914);
#40=CIRCLE('',#272,7.9421569720372);
#41=CIRCLE('',#273,8.38738565734573);
#42=CIRCLE('',#274,8.38738565734573);
#43=CIRCLE('',#276,8.25);
#44=CIRCLE('',#278,8.25);
#45=CIRCLE('',#280,8.75);
#46=CIRCLE('',#282,8.75);
#47=CIRCLE('',#284,8.);
#48=CIRCLE('',#286,8.);
#49=CIRCLE('',#288,8.75);
#50=CIRCLE('',#290,8.75);
#51=CIRCLE('',#292,8.55);
#52=ORIENTED_EDGE('',*,*,#108,.F.);
#53=ORIENTED_EDGE('',*,*,#109,.F.);
#54=ORIENTED_EDGE('',*,*,#110,.F.);
#55=ORIENTED_EDGE('',*,*,#111,.F.);
#56=ORIENTED_EDGE('',*,*,#112,.F.);
#57=ORIENTED_EDGE('',*,*,#113,.T.);
#58=ORIENTED_EDGE('',*,*,#109,.T.);
#59=ORIENTED_EDGE('',*,*,#114,.T.);
#60=ORIENTED_EDGE('',*,*,#111,.T.);
#61=ORIENTED_EDGE('',*,*,#115,.T.);
#62=ORIENTED_EDGE('',*,*,#116,.F.);
#63=ORIENTED_EDGE('',*,*,#117,.T.);
#64=ORIENTED_EDGE('',*,*,#118,.F.);
#65=ORIENTED_EDGE('',*,*,#119,.F.);
#66=ORIENTED_EDGE('',*,*,#120,.F.);
#67=ORIENTED_EDGE('',*,*,#121,.F.);
#68=ORIENTED_EDGE('',*,*,#116,.T.);
#69=ORIENTED_EDGE('',*,*,#122,.F.);
#70=ORIENTED_EDGE('',*,*,#123,.F.);
#71=ORIENTED_EDGE('',*,*,#124,.F.);
#72=ORIENTED_EDGE('',*,*,#112,.T.);
#73=ORIENTED_EDGE('',*,*,#125,.F.);
#74=ORIENTED_EDGE('',*,*,#118,.T.);
#75=ORIENTED_EDGE('',*,*,#125,.T.);
#76=ORIENTED_EDGE('',*,*,#126,.F.);
#77=ORIENTED_EDGE('',*,*,#127,.F.);
#78=ORIENTED_EDGE('',*,*,#126,.T.);
#79=ORIENTED_EDGE('',*,*,#128,.F.);
#80=ORIENTED_EDGE('',*,*,#127,.T.);
#81=ORIENTED_EDGE('',*,*,#129,.F.);
#82=ORIENTED_EDGE('',*,*,#128,.T.);
#83=ORIENTED_EDGE('',*,*,#129,.T.);
#84=ORIENTED_EDGE('',*,*,#130,.F.);
#85=ORIENTED_EDGE('',*,*,#131,.F.);
#86=ORIENTED_EDGE('',*,*,#130,.T.);
#87=ORIENTED_EDGE('',*,*,#132,.F.);
#88=ORIENTED_EDGE('',*,*,#131,.T.);
#89=ORIENTED_EDGE('',*,*,#132,.T.);
#90=ORIENTED_EDGE('',*,*,#133,.F.);
#91=ORIENTED_EDGE('',*,*,#133,.T.);
#92=ORIENTED_EDGE('',*,*,#124,.T.);
#93=ORIENTED_EDGE('',*,*,#134,.F.);
#94=ORIENTED_EDGE('',*,*,#119,.T.);
#95=ORIENTED_EDGE('',*,*,#114,.F.);
#96=ORIENTED_EDGE('',*,*,#108,.T.);
#97=ORIENTED_EDGE('',*,*,#113,.F.);
#98=ORIENTED_EDGE('',*,*,#121,.T.);
#99=ORIENTED_EDGE('',*,*,#135,.T.);
#100=ORIENTED_EDGE('',*,*,#122,.T.);
#101=ORIENTED_EDGE('',*,*,#115,.F.);
#102=ORIENTED_EDGE('',*,*,#110,.T.);
#103=ORIENTED_EDGE('',*,*,#117,.F.);
#104=ORIENTED_EDGE('',*,*,#135,.F.);
#105=ORIENTED_EDGE('',*,*,#120,.T.);
#106=ORIENTED_EDGE('',*,*,#134,.T.);
#107=ORIENTED_EDGE('',*,*,#123,.T.);
#108=EDGE_CURVE('',#136,#137,#158,.T.);
#109=EDGE_CURVE('',#137,#136,#36,.T.);
#110=EDGE_CURVE('',#138,#139,#159,.T.);
#111=EDGE_CURVE('',#139,#138,#37,.T.);
#112=EDGE_CURVE('',#140,#141,#38,.T.);
#113=EDGE_CURVE('',#140,#137,#23,.T.);
#114=EDGE_CURVE('',#136,#141,#24,.T.);
#115=EDGE_CURVE('',#138,#142,#25,.T.);
#116=EDGE_CURVE('',#143,#142,#39,.T.);
#117=EDGE_CURVE('',#143,#139,#26,.T.);
#118=EDGE_CURVE('',#144,#144,#40,.T.);
#119=EDGE_CURVE('',#145,#141,#27,.T.);
#120=EDGE_CURVE('',#146,#145,#41,.T.);
#121=EDGE_CURVE('',#143,#146,#28,.T.);
#122=EDGE_CURVE('',#147,#142,#29,.T.);
#123=EDGE_CURVE('',#148,#147,#42,.T.);
#124=EDGE_CURVE('',#140,#148,#30,.T.);
#125=EDGE_CURVE('',#149,#149,#43,.T.);
#126=EDGE_CURVE('',#150,#150,#44,.T.);
#127=EDGE_CURVE('',#151,#151,#45,.T.);
#128=EDGE_CURVE('',#152,#152,#46,.T.);
#129=EDGE_CURVE('',#153,#153,#47,.T.);
#130=EDGE_CURVE('',#154,#154,#48,.T.);
#131=EDGE_CURVE('',#155,#155,#49,.T.);
#132=EDGE_CURVE('',#156,#156,#50,.T.);
#133=EDGE_CURVE('',#157,#157,#51,.T.);
#134=EDGE_CURVE('',#145,#148,#160,.T.);
#135=EDGE_CURVE('',#146,#147,#161,.T.);
#136=VERTEX_POINT('',#374);
#137=VERTEX_POINT('',#375);
#138=VERTEX_POINT('',#379);
#139=VERTEX_POINT('',#380);
#140=VERTEX_POINT('',#384);
#141=VERTEX_POINT('',#385);
#142=VERTEX_POINT('',#399);
#143=VERTEX_POINT('',#401);
#144=VERTEX_POINT('',#408);
#145=VERTEX_POINT('',#413);
#146=VERTEX_POINT('',#415);
#147=VERTEX_POINT('',#424);
#148=VERTEX_POINT('',#426);
#149=VERTEX_POINT('',#433);
#150=VERTEX_POINT('',#436);
#151=VERTEX_POINT('',#439);
#152=VERTEX_POINT('',#442);
#153=VERTEX_POINT('',#445);
#154=VERTEX_POINT('',#448);
#155=VERTEX_POINT('',#451);
#156=VERTEX_POINT('',#454);
#157=VERTEX_POINT('',#457);
#158=LINE('',#373,#162);
#159=LINE('',#378,#163);
#160=LINE('',#460,#164);
#161=LINE('',#462,#165);
#162=VECTOR('',#301,1000.);
#163=VECTOR('',#306,1000.);
#164=VECTOR('',#365,1000.);
#165=VECTOR('',#368,1000.);
#166=EDGE_LOOP('',(#52,#53));
#167=EDGE_LOOP('',(#54,#55));
#168=EDGE_LOOP('',(#56,#57,#58,#59));
#169=EDGE_LOOP('',(#60,#61,#62,#63));
#170=EDGE_LOOP('',(#64));
#171=EDGE_LOOP('',(#65,#66,#67,#68,#69,#70,#71,#72));
#172=EDGE_LOOP('',(#73));
#173=EDGE_LOOP('',(#74));
#174=EDGE_LOOP('',(#75));
#175=EDGE_LOOP('',(#76));
#176=EDGE_LOOP('',(#77));
#177=EDGE_LOOP('',(#78));
#178=EDGE_LOOP('',(#79));
#179=EDGE_LOOP('',(#80));
#180=EDGE_LOOP('',(#81));
#181=EDGE_LOOP('',(#82));
#182=EDGE_LOOP('',(#83));
#183=EDGE_LOOP('',(#84));
#184=EDGE_LOOP('',(#85));
#185=EDGE_LOOP('',(#86));
#186=EDGE_LOOP('',(#87));
#187=EDGE_LOOP('',(#88));
#188=EDGE_LOOP('',(#89));
#189=EDGE_LOOP('',(#90));
#190=EDGE_LOOP('',(#91));
#191=EDGE_LOOP('',(#92,#93,#94,#95,#96,#97));
#192=EDGE_LOOP('',(#98,#99,#100,#101,#102,#103));
#193=EDGE_LOOP('',(#104,#105,#106,#107));
#194=FACE_BOUND('',#166,.T.);
#195=FACE_BOUND('',#167,.T.);
#196=FACE_BOUND('',#168,.T.);
#197=FACE_BOUND('',#169,.T.);
#198=FACE_BOUND('',#170,.T.);
#199=FACE_BOUND('',#171,.T.);
#200=FACE_BOUND('',#172,.T.);
#201=FACE_BOUND('',#173,.T.);
#202=FACE_BOUND('',#174,.T.);
#203=FACE_BOUND('',#175,.T.);
#204=FACE_BOUND('',#176,.T.);
#205=FACE_BOUND('',#177,.T.);
#206=FACE_BOUND('',#178,.T.);
#207=FACE_BOUND('',#179,.T.);
#208=FACE_BOUND('',#180,.T.);
#209=FACE_BOUND('',#181,.T.);
#210=FACE_BOUND('',#182,.T.);
#211=FACE_BOUND('',#183,.T.);
#212=FACE_BOUND('',#184,.T.);
#213=FACE_BOUND('',#185,.T.);
#214=FACE_BOUND('',#186,.T.);
#215=FACE_BOUND('',#187,.T.);
#216=FACE_BOUND('',#188,.T.);
#217=FACE_BOUND('',#189,.T.);
#218=FACE_BOUND('',#190,.T.);
#219=FACE_BOUND('',#191,.T.);
#220=FACE_BOUND('',#192,.T.);
#221=FACE_BOUND('',#193,.T.);
#222=PLANE('',#263);
#223=PLANE('',#265);
#224=PLANE('',#275);
#225=PLANE('',#279);
#226=PLANE('',#283);
#227=PLANE('',#287);
#228=PLANE('',#293);
#229=PLANE('',#294);
#230=PLANE('',#295);
#231=PLANE('',#296);
#232=ADVANCED_FACE('',(#194),#222,.F.);
#233=ADVANCED_FACE('',(#195),#223,.F.);
#234=ADVANCED_FACE('',(#196),#31,.T.);
#235=ADVANCED_FACE('',(#197),#32,.T.);
#236=ADVANCED_FACE('',(#198,#199),#22,.T.);
#237=ADVANCED_FACE('',(#200,#201),#224,.F.);
#238=ADVANCED_FACE('',(#202,#203),#33,.T.);
#239=ADVANCED_FACE('',(#204,#205),#225,.F.);
#240=ADVANCED_FACE('',(#206,#207),#20,.T.);
#241=ADVANCED_FACE('',(#208,#209),#226,.F.);
#242=ADVANCED_FACE('',(#210,#211),#34,.T.);
#243=ADVANCED_FACE('',(#212,#213),#227,.F.);
#244=ADVANCED_FACE('',(#214,#215),#21,.T.);
#245=ADVANCED_FACE('',(#216,#217),#35,.T.);
#246=ADVANCED_FACE('',(#218),#228,.F.);
#247=ADVANCED_FACE('',(#219),#229,.T.);
#248=ADVANCED_FACE('',(#220),#230,.T.);
#249=ADVANCED_FACE('',(#221),#231,.T.);
#250=CLOSED_SHELL('',(#232,#233,#234,#235,#236,#237,#238,#239,#240,#241,
#242,#243,#244,#245,#246,#247,#248,#249));
#251=STYLED_ITEM('',(#252),#259);
#252=PRESENTATION_STYLE_ASSIGNMENT((#253));
#253=SURFACE_STYLE_USAGE(.BOTH.,#254);
#254=SURFACE_SIDE_STYLE('',(#255));
#255=SURFACE_STYLE_FILL_AREA(#256);
#256=FILL_AREA_STYLE('',(#257));
#257=FILL_AREA_STYLE_COLOUR('',#258);
#258=COLOUR_RGB('',0.689999997615814,0.689999997615814,0.689999997615814);
#259=MANIFOLD_SOLID_BREP('8022483 VABD-17.5-B',#250);
#260=SHAPE_DEFINITION_REPRESENTATION(#470,#261);
#261=SHAPE_REPRESENTATION('8022483 VABD-17.5-B',(#262),#465);
#262=AXIS2_PLACEMENT_3D('',#371,#297,#298);
#263=AXIS2_PLACEMENT_3D('',#372,#299,#300);
#264=AXIS2_PLACEMENT_3D('',#376,#302,#303);
#265=AXIS2_PLACEMENT_3D('',#377,#304,#305);
#266=AXIS2_PLACEMENT_3D('',#381,#307,#308);
#267=AXIS2_PLACEMENT_3D('',#382,#309,#310);
#268=AXIS2_PLACEMENT_3D('',#383,#311,#312);
#269=AXIS2_PLACEMENT_3D('',#394,#313,#314);
#270=AXIS2_PLACEMENT_3D('',#400,#315,#316);
#271=AXIS2_PLACEMENT_3D('',#406,#317,#318);
#272=AXIS2_PLACEMENT_3D('',#407,#319,#320);
#273=AXIS2_PLACEMENT_3D('',#414,#321,#322);
#274=AXIS2_PLACEMENT_3D('',#425,#323,#324);
#275=AXIS2_PLACEMENT_3D('',#431,#325,#326);
#276=AXIS2_PLACEMENT_3D('',#432,#327,#328);
#277=AXIS2_PLACEMENT_3D('',#434,#329,#330);
#278=AXIS2_PLACEMENT_3D('',#435,#331,#332);
#279=AXIS2_PLACEMENT_3D('',#437,#333,#334);
#280=AXIS2_PLACEMENT_3D('',#438,#335,#336);
#281=AXIS2_PLACEMENT_3D('',#440,#337,#338);
#282=AXIS2_PLACEMENT_3D('',#441,#339,#340);
#283=AXIS2_PLACEMENT_3D('',#443,#341,#342);
#284=AXIS2_PLACEMENT_3D('',#444,#343,#344);
#285=AXIS2_PLACEMENT_3D('',#446,#345,#346);
#286=AXIS2_PLACEMENT_3D('',#447,#347,#348);
#287=AXIS2_PLACEMENT_3D('',#449,#349,#350);
#288=AXIS2_PLACEMENT_3D('',#450,#351,#352);
#289=AXIS2_PLACEMENT_3D('',#452,#353,#354);
#290=AXIS2_PLACEMENT_3D('',#453,#355,#356);
#291=AXIS2_PLACEMENT_3D('',#455,#357,#358);
#292=AXIS2_PLACEMENT_3D('',#456,#359,#360);
#293=AXIS2_PLACEMENT_3D('',#458,#361,#362);
#294=AXIS2_PLACEMENT_3D('',#459,#363,#364);
#295=AXIS2_PLACEMENT_3D('',#461,#366,#367);
#296=AXIS2_PLACEMENT_3D('',#463,#369,#370);
#297=DIRECTION('',(0.,0.,1.));
#298=DIRECTION('',(1.,0.,0.));
#299=DIRECTION('',(0.,0.,-1.));
#300=DIRECTION('',(-1.,0.,0.));
#301=DIRECTION('',(0.,-1.,0.));
#302=DIRECTION('',(0.,0.,-1.));
#303=DIRECTION('',(-1.,0.,0.));
#304=DIRECTION('',(0.,0.,-1.));
#305=DIRECTION('',(-1.,0.,0.));
#306=DIRECTION('',(0.,1.,0.));
#307=DIRECTION('',(0.,0.,-1.));
#308=DIRECTION('',(-1.,0.,0.));
#309=DIRECTION('',(0.,0.,-1.));
#310=DIRECTION('',(-1.,0.,0.));
#311=DIRECTION('',(0.,0.,-1.));
#312=DIRECTION('',(-1.,0.,0.));
#313=DIRECTION('',(0.,0.,-1.));
#314=DIRECTION('',(-1.,0.,0.));
#315=DIRECTION('',(0.,0.,-1.));
#316=DIRECTION('',(-1.,0.,0.));
#317=DIRECTION('',(0.,0.,1.));
#318=DIRECTION('',(1.,0.,0.));
#319=DIRECTION('',(0.,0.,-1.));
#320=DIRECTION('',(-1.,0.,0.));
#321=DIRECTION('',(0.,0.,1.));
#322=DIRECTION('',(1.,0.,0.));
#323=DIRECTION('',(0.,0.,1.));
#324=DIRECTION('',(1.,0.,0.));
#325=DIRECTION('',(0.,0.,-1.));
#326=DIRECTION('',(-1.,0.,0.));
#327=DIRECTION('',(0.,0.,-1.));
#328=DIRECTION('',(-1.,0.,0.));
#329=DIRECTION('',(0.,0.,-1.));
#330=DIRECTION('',(-1.,0.,0.));
#331=DIRECTION('',(0.,0.,-1.));
#332=DIRECTION('',(-1.,0.,0.));
#333=DIRECTION('',(0.,0.,-1.));
#334=DIRECTION('',(-1.,0.,0.));
#335=DIRECTION('',(0.,0.,-1.));
#336=DIRECTION('',(-1.,0.,0.));
#337=DIRECTION('',(0.,0.,-1.));
#338=DIRECTION('',(-1.,0.,0.));
#339=DIRECTION('',(0.,0.,-1.));
#340=DIRECTION('',(-1.,0.,0.));
#341=DIRECTION('',(0.,0.,1.));
#342=DIRECTION('',(1.,0.,0.));
#343=DIRECTION('',(0.,0.,-1.));
#344=DIRECTION('',(-1.,0.,0.));
#345=DIRECTION('',(0.,0.,-1.));
#346=DIRECTION('',(-1.,0.,0.));
#347=DIRECTION('',(0.,0.,-1.));
#348=DIRECTION('',(-1.,0.,0.));
#349=DIRECTION('',(0.,0.,-1.));
#350=DIRECTION('',(-1.,0.,0.));
#351=DIRECTION('',(0.,0.,-1.));
#352=DIRECTION('',(-1.,0.,0.));
#353=DIRECTION('',(0.,0.,-1.));
#354=DIRECTION('',(-1.,0.,0.));
#355=DIRECTION('',(0.,0.,-1.));
#356=DIRECTION('',(-1.,0.,0.));
#357=DIRECTION('',(0.,0.,-1.));
#358=DIRECTION('',(-1.,0.,0.));
#359=DIRECTION('',(0.,0.,-1.));
#360=DIRECTION('',(-1.,0.,0.));
#361=DIRECTION('',(0.,0.,1.));
#362=DIRECTION('',(1.,0.,0.));
#363=DIRECTION('',(1.,0.,0.));
#364=DIRECTION('',(0.,0.,-1.));
#365=DIRECTION('',(0.,-1.,0.));
#366=DIRECTION('',(-1.,0.,0.));
#367=DIRECTION('',(0.,0.,1.));
#368=DIRECTION('',(0.,-1.,0.));
#369=DIRECTION('',(0.,0.,1.));
#370=DIRECTION('',(1.,0.,0.));
#371=CARTESIAN_POINT('',(0.,0.,0.));
#372=CARTESIAN_POINT('',(0.,0.,15.));
#373=CARTESIAN_POINT('',(-0.6,0.,15.));
#374=CARTESIAN_POINT('',(-0.6,8.51188605577064,15.));
#375=CARTESIAN_POINT('',(-0.6,-8.51188605577064,15.));
#376=CARTESIAN_POINT('',(0.,0.,15.));
#377=CARTESIAN_POINT('',(0.,0.,15.));
#378=CARTESIAN_POINT('',(0.6,0.,15.));
#379=CARTESIAN_POINT('',(0.6,-8.51188605577064,15.));
#380=CARTESIAN_POINT('',(0.6,8.51188605577064,15.));
#381=CARTESIAN_POINT('',(0.,0.,15.));
#382=CARTESIAN_POINT('',(0.,0.,14.95));
#383=CARTESIAN_POINT('',(0.,0.,14.9296631678462));
#384=CARTESIAN_POINT('',(-0.6,-8.55767606279475,14.9296631678425));
#385=CARTESIAN_POINT('',(-0.6,8.55767606278103,14.9296631678462));
#386=CARTESIAN_POINT('',(-0.6,-8.55767606278199,14.9296631678484));
#387=CARTESIAN_POINT('',(-0.6,-8.57113440711754,14.9598170802823));
#388=CARTESIAN_POINT('',(-0.6,-8.54509131467683,15.));
#389=CARTESIAN_POINT('',(-0.6,-8.51188605577064,15.));
#390=CARTESIAN_POINT('',(-0.6,8.51188605577064,15.));
#391=CARTESIAN_POINT('',(-0.6,8.54514180485607,15.));
#392=CARTESIAN_POINT('',(-0.6,8.57118374263884,14.9599276183173));
#393=CARTESIAN_POINT('',(-0.6,8.55767606278103,14.9296631678462));
#394=CARTESIAN_POINT('',(0.,0.,14.95));
#395=CARTESIAN_POINT('',(0.6,-8.51188605577064,15.));
#396=CARTESIAN_POINT('',(0.6,-8.54509205319137,15.));
#397=CARTESIAN_POINT('',(0.6,-8.57125756371421,14.9600930171351));
#398=CARTESIAN_POINT('',(0.6,-8.55767606278103,14.9296631678462));
#399=CARTESIAN_POINT('',(0.6,-8.55767606278103,14.9296631678462));
#400=CARTESIAN_POINT('',(0.,0.,14.9296631678462));
#401=CARTESIAN_POINT('',(0.6,8.55767606278103,14.9296631678462));
#402=CARTESIAN_POINT('',(0.6,8.55767606278103,14.9296631678462));
#403=CARTESIAN_POINT('',(0.6,8.57125952545672,14.9600974124909));
#404=CARTESIAN_POINT('',(0.6,8.54508970919148,15.));
#405=CARTESIAN_POINT('',(0.6,8.51188605577064,15.));
#406=CARTESIAN_POINT('',(0.,0.,14.9296631678462));
#407=CARTESIAN_POINT('',(0.,0.,13.5));
#408=CARTESIAN_POINT('',(-7.9421569720372,0.,13.5));
#409=CARTESIAN_POINT('',(-0.6,8.36589733173011,14.5));
#410=CARTESIAN_POINT('',(-0.6,8.4298266303187,14.6432196869207));
#411=CARTESIAN_POINT('',(-0.6,8.49375280559795,14.7864407735242));
#412=CARTESIAN_POINT('',(-0.6,8.55767606278104,14.9296631678462));
#413=CARTESIAN_POINT('',(-0.6,8.36589733173011,14.5));
#414=CARTESIAN_POINT('',(0.,0.,14.5));
#415=CARTESIAN_POINT('',(0.6,8.36589733173011,14.5));
#416=CARTESIAN_POINT('',(0.6,8.55767606278103,14.9296631678462));
#417=CARTESIAN_POINT('',(0.6,8.49375280803032,14.786440778974));
#418=CARTESIAN_POINT('',(0.6,8.42982663280702,14.6432196924952));
#419=CARTESIAN_POINT('',(0.6,8.36589733173011,14.5));
#420=CARTESIAN_POINT('',(0.6,-8.36589733173011,14.5));
#421=CARTESIAN_POINT('',(0.6,-8.4298266303187,14.6432196869207));
#422=CARTESIAN_POINT('',(0.6,-8.49375280559795,14.7864407735242));
#423=CARTESIAN_POINT('',(0.6,-8.55767606278104,14.9296631678462));
#424=CARTESIAN_POINT('',(0.6,-8.36589733173011,14.5));
#425=CARTESIAN_POINT('',(0.,0.,14.5));
#426=CARTESIAN_POINT('',(-0.6,-8.36589733173011,14.5));
#427=CARTESIAN_POINT('',(-0.6,-8.55767606278192,14.9296631678482));
#428=CARTESIAN_POINT('',(-0.6,-8.49375280803091,14.7864407789754));
#429=CARTESIAN_POINT('',(-0.6,-8.42982663280732,14.6432196924959));
#430=CARTESIAN_POINT('',(-0.6,-8.36589733173011,14.5));
#431=CARTESIAN_POINT('',(0.,7.9421569720372,13.5));
#432=CARTESIAN_POINT('',(0.,0.,13.5));
#433=CARTESIAN_POINT('',(-8.25,0.,13.5));
#434=CARTESIAN_POINT('',(0.,0.,13.));
#435=CARTESIAN_POINT('',(0.,0.,12.5));
#436=CARTESIAN_POINT('',(-8.25,0.,12.5));
#437=CARTESIAN_POINT('',(0.,8.25,12.5));
#438=CARTESIAN_POINT('',(0.,0.,12.5));
#439=CARTESIAN_POINT('',(-8.75,0.,12.5));
#440=CARTESIAN_POINT('',(0.,0.,0.));
#441=CARTESIAN_POINT('',(0.,0.,7.1));
#442=CARTESIAN_POINT('',(-8.75,0.,7.1));
#443=CARTESIAN_POINT('',(0.,8.75,7.1));
#444=CARTESIAN_POINT('',(0.,0.,7.1));
#445=CARTESIAN_POINT('',(-8.,0.,7.1));
#446=CARTESIAN_POINT('',(0.,0.,6.35));
#447=CARTESIAN_POINT('',(0.,0.,5.6));
#448=CARTESIAN_POINT('',(-8.,0.,5.6));
#449=CARTESIAN_POINT('',(0.,8.,5.6));
#450=CARTESIAN_POINT('',(0.,0.,5.6));
#451=CARTESIAN_POINT('',(-8.75,0.,5.6));
#452=CARTESIAN_POINT('',(0.,0.,0.));
#453=CARTESIAN_POINT('',(0.,0.,0.200000000000001));
#454=CARTESIAN_POINT('',(-8.75,0.,0.200000000000001));
#455=CARTESIAN_POINT('',(0.,0.,0.2));
#456=CARTESIAN_POINT('',(0.,0.,-7.31836466427715E-16));
#457=CARTESIAN_POINT('',(-8.55,0.,-7.31836466427715E-16));
#458=CARTESIAN_POINT('',(0.,8.55,-3.65918233213858E-16));
#459=CARTESIAN_POINT('',(-0.6,8.75,14.5));
#460=CARTESIAN_POINT('',(-0.6,8.75,14.5));
#461=CARTESIAN_POINT('',(0.6,8.75,17.5));
#462=CARTESIAN_POINT('',(0.6,8.75,14.5));
#463=CARTESIAN_POINT('',(0.6,8.75,14.5));
#464=MECHANICAL_DESIGN_GEOMETRIC_PRESENTATION_REPRESENTATION('',(#251),
#465);
#465=(
GEOMETRIC_REPRESENTATION_CONTEXT(3)
GLOBAL_UNCERTAINTY_ASSIGNED_CONTEXT((#466))
GLOBAL_UNIT_ASSIGNED_CONTEXT((#469,#468,#467))
REPRESENTATION_CONTEXT('8022483 VABD-17.5-B','TOP_LEVEL_ASSEMBLY_PART')
);
#466=UNCERTAINTY_MEASURE_WITH_UNIT(LENGTH_MEASURE(0.005),#469,
'DISTANCE_ACCURACY_VALUE','Maximum Tolerance applied to model');
#467=(
NAMED_UNIT(*)
SI_UNIT($,.STERADIAN.)
SOLID_ANGLE_UNIT()
);
#468=(
NAMED_UNIT(*)
PLANE_ANGLE_UNIT()
SI_UNIT($,.RADIAN.)
);
#469=(
LENGTH_UNIT()
NAMED_UNIT(*)
SI_UNIT(.MILLI.,.METRE.)
);
#470=PRODUCT_DEFINITION_SHAPE('','',#471);
#471=PRODUCT_DEFINITION('','',#473,#472);
#472=PRODUCT_DEFINITION_CONTEXT('',#479,'design');
#473=PRODUCT_DEFINITION_FORMATION_WITH_SPECIFIED_SOURCE('','',#475,
 .NOT_KNOWN.);
#474=PRODUCT_RELATED_PRODUCT_CATEGORY('','',(#475));
#475=PRODUCT('8022483 VABD-17.5-B','8022483 VABD-17.5-B',
'8022483 VABD-17.5-B',(#477));
#476=PRODUCT_CATEGORY('','');
#477=PRODUCT_CONTEXT('',#479,'mechanical');
#478=APPLICATION_PROTOCOL_DEFINITION('international standard',
'automotive_design',2010,#479);
#479=APPLICATION_CONTEXT(
'core data for automotive mechanical design processes');
ENDSEC;
END-ISO-10303-21;
