ISO-10303-21;
HEADER;
/* Generated by software containing ST-Developer
 * from STEP Tools, Inc. (www.steptools.com) 
 */
/* OPTION: using custom renumber hook */

FILE_DESCRIPTION(
/* description */ ('STEP AP214'),
/* implementation_level */ '2;1');

FILE_NAME(
/* name */ '6701_FR-4-1_8-B',
/* time_stamp */ '2024-08-23T10:27:44+02:00',
/* author */ ('License CC BY-ND 4.0'),
/* organization */ ('CADENAS'),
/* preprocessor_version */ 'ST-DEVELOPER v19.3',
/* originating_system */ 'PARTsolutions',
/* authorisation */ '  ');

FILE_SCHEMA (('AUTOMOTIVE_DESIGN {1 0 10303 214 3 1 1}'));
ENDSEC;

DATA;
#10=PROPERTY_DEFINITION_REPRESENTATION(#14,#12);
#11=PROPERTY_DEFINITION_REPRESENTATION(#15,#13);
#12=REPRESENTATION('',(#16),#735);
#13=REPRESENTATION('',(#17),#735);
#14=PROPERTY_DEFINITION('pmi validation property','',#742);
#15=PROPERTY_DEFINITION('pmi validation property','',#742);
#16=VALUE_REPRESENTATION_ITEM('number of annotations',COUNT_MEASURE(0.));
#17=VALUE_REPRESENTATION_ITEM('number of views',COUNT_MEASURE(0.));
#18=CONTEXT_DEPENDENT_SHAPE_REPRESENTATION(#20,#744);
#19=NEXT_ASSEMBLY_USAGE_OCCURRENCE('NAUO1','6701 FR-4-1/8-B - P1',
'6701 FR-4-1/8-B - P1',#745,#746,'');
#20=(
REPRESENTATION_RELATIONSHIP(' ',' ',#433,#432)
REPRESENTATION_RELATIONSHIP_WITH_TRANSFORMATION(#21)
SHAPE_REPRESENTATION_RELATIONSHIP()
);
#21=ITEM_DEFINED_TRANSFORMATION(' ',' ',#434,#491);
#22=SHAPE_REPRESENTATION_RELATIONSHIP('','',#433,#23);
#23=ADVANCED_BREP_SHAPE_REPRESENTATION('',(#429),#736);
#24=CONICAL_SURFACE('',#467,4.864,0.785398163397444);
#25=CONICAL_SURFACE('',#472,4.283,0.785398163397448);
#26=CONICAL_SURFACE('',#479,4.283,0.785398163397448);
#27=CONICAL_SURFACE('',#486,4.283,0.785398163397448);
#28=PLANE('',#446);
#29=PLANE('',#447);
#30=PLANE('',#450);
#31=PLANE('',#454);
#32=PLANE('',#457);
#33=PLANE('',#458);
#34=PLANE('',#459);
#35=PLANE('',#465);
#36=PLANE('',#468);
#37=PLANE('',#469);
#38=PLANE('',#474);
#39=PLANE('',#481);
#40=PLANE('',#488);
#41=LINE('',#641,#57);
#42=LINE('',#644,#58);
#43=LINE('',#648,#59);
#44=LINE('',#654,#60);
#45=LINE('',#657,#61);
#46=LINE('',#659,#62);
#47=LINE('',#661,#63);
#48=LINE('',#669,#64);
#49=LINE('',#671,#65);
#50=LINE('',#673,#66);
#51=LINE('',#679,#67);
#52=LINE('',#681,#68);
#53=LINE('',#683,#69);
#54=LINE('',#685,#70);
#55=LINE('',#686,#71);
#56=LINE('',#701,#72);
#57=VECTOR('',#512,1000.);
#58=VECTOR('',#515,1000.);
#59=VECTOR('',#520,1000.);
#60=VECTOR('',#527,1000.);
#61=VECTOR('',#528,1000.);
#62=VECTOR('',#529,1000.);
#63=VECTOR('',#530,1000.);
#64=VECTOR('',#539,1000.);
#65=VECTOR('',#540,1000.);
#66=VECTOR('',#541,1000.);
#67=VECTOR('',#548,1000.);
#68=VECTOR('',#549,1000.);
#69=VECTOR('',#550,1000.);
#70=VECTOR('',#553,1000.);
#71=VECTOR('',#554,1000.);
#72=VECTOR('',#577,1000.);
#73=ELLIPSE('',#437,6.05707668764397,4.283);
#74=ELLIPSE('',#438,6.05707668764397,4.283);
#75=ELLIPSE('',#439,6.05707668764397,4.283);
#76=ELLIPSE('',#440,6.05707668764397,4.283);
#77=ELLIPSE('',#441,6.05707668764397,4.283);
#78=ELLIPSE('',#444,6.05707668764397,4.283);
#79=ORIENTED_EDGE('',*,*,#167,.T.);
#80=ORIENTED_EDGE('',*,*,#168,.T.);
#81=ORIENTED_EDGE('',*,*,#169,.T.);
#82=ORIENTED_EDGE('',*,*,#170,.T.);
#83=ORIENTED_EDGE('',*,*,#171,.T.);
#84=ORIENTED_EDGE('',*,*,#172,.T.);
#85=ORIENTED_EDGE('',*,*,#173,.F.);
#86=ORIENTED_EDGE('',*,*,#174,.F.);
#87=ORIENTED_EDGE('',*,*,#175,.T.);
#88=ORIENTED_EDGE('',*,*,#176,.T.);
#89=ORIENTED_EDGE('',*,*,#177,.T.);
#90=ORIENTED_EDGE('',*,*,#167,.F.);
#91=ORIENTED_EDGE('',*,*,#178,.F.);
#92=ORIENTED_EDGE('',*,*,#179,.F.);
#93=ORIENTED_EDGE('',*,*,#180,.F.);
#94=ORIENTED_EDGE('',*,*,#181,.T.);
#95=ORIENTED_EDGE('',*,*,#182,.F.);
#96=ORIENTED_EDGE('',*,*,#183,.F.);
#97=ORIENTED_EDGE('',*,*,#184,.T.);
#98=ORIENTED_EDGE('',*,*,#185,.F.);
#99=ORIENTED_EDGE('',*,*,#186,.F.);
#100=ORIENTED_EDGE('',*,*,#187,.F.);
#101=ORIENTED_EDGE('',*,*,#188,.T.);
#102=ORIENTED_EDGE('',*,*,#189,.F.);
#103=ORIENTED_EDGE('',*,*,#190,.F.);
#104=ORIENTED_EDGE('',*,*,#182,.T.);
#105=ORIENTED_EDGE('',*,*,#191,.T.);
#106=ORIENTED_EDGE('',*,*,#192,.T.);
#107=ORIENTED_EDGE('',*,*,#193,.T.);
#108=ORIENTED_EDGE('',*,*,#194,.F.);
#109=ORIENTED_EDGE('',*,*,#195,.F.);
#110=ORIENTED_EDGE('',*,*,#189,.T.);
#111=ORIENTED_EDGE('',*,*,#196,.T.);
#112=ORIENTED_EDGE('',*,*,#184,.F.);
#113=ORIENTED_EDGE('',*,*,#197,.F.);
#114=ORIENTED_EDGE('',*,*,#194,.T.);
#115=ORIENTED_EDGE('',*,*,#183,.T.);
#116=ORIENTED_EDGE('',*,*,#190,.T.);
#117=ORIENTED_EDGE('',*,*,#195,.T.);
#118=ORIENTED_EDGE('',*,*,#197,.T.);
#119=ORIENTED_EDGE('',*,*,#198,.T.);
#120=ORIENTED_EDGE('',*,*,#181,.F.);
#121=ORIENTED_EDGE('',*,*,#196,.F.);
#122=ORIENTED_EDGE('',*,*,#193,.F.);
#123=ORIENTED_EDGE('',*,*,#188,.F.);
#124=ORIENTED_EDGE('',*,*,#192,.F.);
#125=ORIENTED_EDGE('',*,*,#180,.T.);
#126=ORIENTED_EDGE('',*,*,#191,.F.);
#127=ORIENTED_EDGE('',*,*,#179,.T.);
#128=ORIENTED_EDGE('',*,*,#199,.T.);
#129=ORIENTED_EDGE('',*,*,#198,.F.);
#130=ORIENTED_EDGE('',*,*,#200,.T.);
#131=ORIENTED_EDGE('',*,*,#199,.F.);
#132=ORIENTED_EDGE('',*,*,#173,.T.);
#133=ORIENTED_EDGE('',*,*,#200,.F.);
#134=ORIENTED_EDGE('',*,*,#177,.F.);
#135=ORIENTED_EDGE('',*,*,#201,.F.);
#136=ORIENTED_EDGE('',*,*,#176,.F.);
#137=ORIENTED_EDGE('',*,*,#178,.T.);
#138=ORIENTED_EDGE('',*,*,#174,.T.);
#139=ORIENTED_EDGE('',*,*,#201,.T.);
#140=ORIENTED_EDGE('',*,*,#202,.T.);
#141=ORIENTED_EDGE('',*,*,#171,.F.);
#142=ORIENTED_EDGE('',*,*,#172,.F.);
#143=ORIENTED_EDGE('',*,*,#203,.T.);
#144=ORIENTED_EDGE('',*,*,#202,.F.);
#145=ORIENTED_EDGE('',*,*,#204,.T.);
#146=ORIENTED_EDGE('',*,*,#203,.F.);
#147=ORIENTED_EDGE('',*,*,#187,.T.);
#148=ORIENTED_EDGE('',*,*,#204,.F.);
#149=ORIENTED_EDGE('',*,*,#205,.T.);
#150=ORIENTED_EDGE('',*,*,#169,.F.);
#151=ORIENTED_EDGE('',*,*,#170,.F.);
#152=ORIENTED_EDGE('',*,*,#206,.T.);
#153=ORIENTED_EDGE('',*,*,#205,.F.);
#154=ORIENTED_EDGE('',*,*,#207,.T.);
#155=ORIENTED_EDGE('',*,*,#206,.F.);
#156=ORIENTED_EDGE('',*,*,#186,.T.);
#157=ORIENTED_EDGE('',*,*,#207,.F.);
#158=ORIENTED_EDGE('',*,*,#208,.T.);
#159=ORIENTED_EDGE('',*,*,#175,.F.);
#160=ORIENTED_EDGE('',*,*,#168,.F.);
#161=ORIENTED_EDGE('',*,*,#209,.T.);
#162=ORIENTED_EDGE('',*,*,#208,.F.);
#163=ORIENTED_EDGE('',*,*,#210,.T.);
#164=ORIENTED_EDGE('',*,*,#209,.F.);
#165=ORIENTED_EDGE('',*,*,#185,.T.);
#166=ORIENTED_EDGE('',*,*,#210,.F.);
#167=EDGE_CURVE('',#211,#212,#247,.T.);
#168=EDGE_CURVE('',#212,#211,#73,.T.);
#169=EDGE_CURVE('',#213,#214,#74,.F.);
#170=EDGE_CURVE('',#214,#213,#75,.T.);
#171=EDGE_CURVE('',#215,#216,#76,.F.);
#172=EDGE_CURVE('',#216,#215,#77,.T.);
#173=EDGE_CURVE('',#217,#217,#248,.T.);
#174=EDGE_CURVE('',#211,#218,#41,.T.);
#175=EDGE_CURVE('',#211,#212,#78,.F.);
#176=EDGE_CURVE('',#212,#219,#42,.T.);
#177=EDGE_CURVE('',#219,#218,#249,.T.);
#178=EDGE_CURVE('',#212,#211,#43,.T.);
#179=EDGE_CURVE('',#220,#220,#250,.T.);
#180=EDGE_CURVE('',#221,#221,#251,.T.);
#181=EDGE_CURVE('',#222,#223,#44,.T.);
#182=EDGE_CURVE('',#224,#223,#45,.T.);
#183=EDGE_CURVE('',#225,#224,#46,.T.);
#184=EDGE_CURVE('',#225,#222,#47,.T.);
#185=EDGE_CURVE('',#226,#226,#252,.T.);
#186=EDGE_CURVE('',#227,#227,#253,.T.);
#187=EDGE_CURVE('',#228,#228,#254,.T.);
#188=EDGE_CURVE('',#223,#229,#48,.T.);
#189=EDGE_CURVE('',#230,#229,#49,.T.);
#190=EDGE_CURVE('',#224,#230,#50,.T.);
#191=EDGE_CURVE('',#231,#231,#255,.T.);
#192=EDGE_CURVE('',#232,#232,#256,.T.);
#193=EDGE_CURVE('',#229,#233,#51,.T.);
#194=EDGE_CURVE('',#234,#233,#52,.T.);
#195=EDGE_CURVE('',#230,#234,#53,.T.);
#196=EDGE_CURVE('',#233,#222,#54,.T.);
#197=EDGE_CURVE('',#234,#225,#55,.T.);
#198=EDGE_CURVE('',#235,#235,#257,.T.);
#199=EDGE_CURVE('',#236,#236,#258,.T.);
#200=EDGE_CURVE('',#237,#237,#259,.T.);
#201=EDGE_CURVE('',#218,#219,#56,.T.);
#202=EDGE_CURVE('',#238,#238,#260,.T.);
#203=EDGE_CURVE('',#239,#239,#261,.T.);
#204=EDGE_CURVE('',#240,#240,#262,.T.);
#205=EDGE_CURVE('',#241,#241,#263,.T.);
#206=EDGE_CURVE('',#242,#242,#264,.T.);
#207=EDGE_CURVE('',#243,#243,#265,.T.);
#208=EDGE_CURVE('',#244,#244,#266,.T.);
#209=EDGE_CURVE('',#245,#245,#267,.T.);
#210=EDGE_CURVE('',#246,#246,#268,.T.);
#211=VERTEX_POINT('',#627);
#212=VERTEX_POINT('',#628);
#213=VERTEX_POINT('',#631);
#214=VERTEX_POINT('',#632);
#215=VERTEX_POINT('',#635);
#216=VERTEX_POINT('',#636);
#217=VERTEX_POINT('',#639);
#218=VERTEX_POINT('',#642);
#219=VERTEX_POINT('',#645);
#220=VERTEX_POINT('',#651);
#221=VERTEX_POINT('',#653);
#222=VERTEX_POINT('',#655);
#223=VERTEX_POINT('',#656);
#224=VERTEX_POINT('',#658);
#225=VERTEX_POINT('',#660);
#226=VERTEX_POINT('',#664);
#227=VERTEX_POINT('',#666);
#228=VERTEX_POINT('',#668);
#229=VERTEX_POINT('',#670);
#230=VERTEX_POINT('',#672);
#231=VERTEX_POINT('',#676);
#232=VERTEX_POINT('',#678);
#233=VERTEX_POINT('',#680);
#234=VERTEX_POINT('',#682);
#235=VERTEX_POINT('',#690);
#236=VERTEX_POINT('',#695);
#237=VERTEX_POINT('',#698);
#238=VERTEX_POINT('',#705);
#239=VERTEX_POINT('',#708);
#240=VERTEX_POINT('',#711);
#241=VERTEX_POINT('',#715);
#242=VERTEX_POINT('',#718);
#243=VERTEX_POINT('',#721);
#244=VERTEX_POINT('',#725);
#245=VERTEX_POINT('',#728);
#246=VERTEX_POINT('',#731);
#247=CIRCLE('',#436,4.283);
#248=CIRCLE('',#442,4.283);
#249=CIRCLE('',#445,4.283);
#250=CIRCLE('',#448,2.2);
#251=CIRCLE('',#449,2.2);
#252=CIRCLE('',#451,7.5);
#253=CIRCLE('',#452,7.5);
#254=CIRCLE('',#453,7.5);
#255=CIRCLE('',#455,2.2);
#256=CIRCLE('',#456,2.2);
#257=CIRCLE('',#460,7.5);
#258=CIRCLE('',#464,7.5);
#259=CIRCLE('',#466,4.864);
#260=CIRCLE('',#471,4.283);
#261=CIRCLE('',#473,4.864);
#262=CIRCLE('',#475,7.5);
#263=CIRCLE('',#478,4.283);
#264=CIRCLE('',#480,4.864);
#265=CIRCLE('',#482,7.5);
#266=CIRCLE('',#485,4.283);
#267=CIRCLE('',#487,4.864);
#268=CIRCLE('',#489,7.5);
#269=EDGE_LOOP('',(#79,#80));
#270=EDGE_LOOP('',(#81,#82));
#271=EDGE_LOOP('',(#83,#84));
#272=EDGE_LOOP('',(#85));
#273=EDGE_LOOP('',(#86,#87,#88,#89));
#274=EDGE_LOOP('',(#90,#91));
#275=EDGE_LOOP('',(#92));
#276=EDGE_LOOP('',(#93));
#277=EDGE_LOOP('',(#94,#95,#96,#97));
#278=EDGE_LOOP('',(#98));
#279=EDGE_LOOP('',(#99));
#280=EDGE_LOOP('',(#100));
#281=EDGE_LOOP('',(#101,#102,#103,#104));
#282=EDGE_LOOP('',(#105));
#283=EDGE_LOOP('',(#106));
#284=EDGE_LOOP('',(#107,#108,#109,#110));
#285=EDGE_LOOP('',(#111,#112,#113,#114));
#286=EDGE_LOOP('',(#115,#116,#117,#118));
#287=EDGE_LOOP('',(#119));
#288=EDGE_LOOP('',(#120,#121,#122,#123));
#289=EDGE_LOOP('',(#124));
#290=EDGE_LOOP('',(#125));
#291=EDGE_LOOP('',(#126));
#292=EDGE_LOOP('',(#127));
#293=EDGE_LOOP('',(#128));
#294=EDGE_LOOP('',(#129));
#295=EDGE_LOOP('',(#130));
#296=EDGE_LOOP('',(#131));
#297=EDGE_LOOP('',(#132));
#298=EDGE_LOOP('',(#133));
#299=EDGE_LOOP('',(#134,#135));
#300=EDGE_LOOP('',(#136,#137,#138,#139));
#301=EDGE_LOOP('',(#140));
#302=EDGE_LOOP('',(#141,#142));
#303=EDGE_LOOP('',(#143));
#304=EDGE_LOOP('',(#144));
#305=EDGE_LOOP('',(#145));
#306=EDGE_LOOP('',(#146));
#307=EDGE_LOOP('',(#147));
#308=EDGE_LOOP('',(#148));
#309=EDGE_LOOP('',(#149));
#310=EDGE_LOOP('',(#150,#151));
#311=EDGE_LOOP('',(#152));
#312=EDGE_LOOP('',(#153));
#313=EDGE_LOOP('',(#154));
#314=EDGE_LOOP('',(#155));
#315=EDGE_LOOP('',(#156));
#316=EDGE_LOOP('',(#157));
#317=EDGE_LOOP('',(#158));
#318=EDGE_LOOP('',(#159,#160));
#319=EDGE_LOOP('',(#161));
#320=EDGE_LOOP('',(#162));
#321=EDGE_LOOP('',(#163));
#322=EDGE_LOOP('',(#164));
#323=EDGE_LOOP('',(#165));
#324=EDGE_LOOP('',(#166));
#325=FACE_BOUND('',#269,.T.);
#326=FACE_BOUND('',#270,.T.);
#327=FACE_BOUND('',#271,.T.);
#328=FACE_BOUND('',#272,.T.);
#329=FACE_BOUND('',#273,.T.);
#330=FACE_BOUND('',#274,.T.);
#331=FACE_BOUND('',#275,.T.);
#332=FACE_BOUND('',#276,.T.);
#333=FACE_BOUND('',#277,.T.);
#334=FACE_BOUND('',#278,.T.);
#335=FACE_BOUND('',#279,.T.);
#336=FACE_BOUND('',#280,.T.);
#337=FACE_BOUND('',#281,.T.);
#338=FACE_BOUND('',#282,.T.);
#339=FACE_BOUND('',#283,.T.);
#340=FACE_BOUND('',#284,.T.);
#341=FACE_BOUND('',#285,.T.);
#342=FACE_BOUND('',#286,.T.);
#343=FACE_BOUND('',#287,.T.);
#344=FACE_BOUND('',#288,.T.);
#345=FACE_BOUND('',#289,.T.);
#346=FACE_BOUND('',#290,.T.);
#347=FACE_BOUND('',#291,.T.);
#348=FACE_BOUND('',#292,.T.);
#349=FACE_BOUND('',#293,.T.);
#350=FACE_BOUND('',#294,.T.);
#351=FACE_BOUND('',#295,.T.);
#352=FACE_BOUND('',#296,.T.);
#353=FACE_BOUND('',#297,.T.);
#354=FACE_BOUND('',#298,.T.);
#355=FACE_BOUND('',#299,.T.);
#356=FACE_BOUND('',#300,.T.);
#357=FACE_BOUND('',#301,.T.);
#358=FACE_BOUND('',#302,.T.);
#359=FACE_BOUND('',#303,.T.);
#360=FACE_BOUND('',#304,.T.);
#361=FACE_BOUND('',#305,.T.);
#362=FACE_BOUND('',#306,.T.);
#363=FACE_BOUND('',#307,.T.);
#364=FACE_BOUND('',#308,.T.);
#365=FACE_BOUND('',#309,.T.);
#366=FACE_BOUND('',#310,.T.);
#367=FACE_BOUND('',#311,.T.);
#368=FACE_BOUND('',#312,.T.);
#369=FACE_BOUND('',#313,.T.);
#370=FACE_BOUND('',#314,.T.);
#371=FACE_BOUND('',#315,.T.);
#372=FACE_BOUND('',#316,.T.);
#373=FACE_BOUND('',#317,.T.);
#374=FACE_BOUND('',#318,.T.);
#375=FACE_BOUND('',#319,.T.);
#376=FACE_BOUND('',#320,.T.);
#377=FACE_BOUND('',#321,.T.);
#378=FACE_BOUND('',#322,.T.);
#379=FACE_BOUND('',#323,.T.);
#380=FACE_BOUND('',#324,.T.);
#381=CYLINDRICAL_SURFACE('',#435,4.283);
#382=CYLINDRICAL_SURFACE('',#443,4.283);
#383=CYLINDRICAL_SURFACE('',#461,2.2);
#384=CYLINDRICAL_SURFACE('',#462,2.2);
#385=CYLINDRICAL_SURFACE('',#463,7.5);
#386=CYLINDRICAL_SURFACE('',#470,4.283);
#387=CYLINDRICAL_SURFACE('',#476,7.5);
#388=CYLINDRICAL_SURFACE('',#477,4.283);
#389=CYLINDRICAL_SURFACE('',#483,7.5);
#390=CYLINDRICAL_SURFACE('',#484,4.283);
#391=CYLINDRICAL_SURFACE('',#490,7.5);
#392=ADVANCED_FACE('',(#325,#326,#327,#328),#381,.F.);
#393=ADVANCED_FACE('',(#329),#382,.F.);
#394=ADVANCED_FACE('',(#330),#28,.T.);
#395=ADVANCED_FACE('',(#331,#332,#333),#29,.F.);
#396=ADVANCED_FACE('',(#334,#335,#336,#337),#30,.F.);
#397=ADVANCED_FACE('',(#338,#339,#340),#31,.F.);
#398=ADVANCED_FACE('',(#341),#32,.F.);
#399=ADVANCED_FACE('',(#342),#33,.T.);
#400=ADVANCED_FACE('',(#343,#344),#34,.F.);
#401=ADVANCED_FACE('',(#345,#346),#383,.F.);
#402=ADVANCED_FACE('',(#347,#348),#384,.F.);
#403=ADVANCED_FACE('',(#349,#350),#385,.F.);
#404=ADVANCED_FACE('',(#351,#352),#35,.T.);
#405=ADVANCED_FACE('',(#353,#354),#24,.F.);
#406=ADVANCED_FACE('',(#355),#36,.T.);
#407=ADVANCED_FACE('',(#356),#37,.F.);
#408=ADVANCED_FACE('',(#357,#358),#386,.F.);
#409=ADVANCED_FACE('',(#359,#360),#25,.F.);
#410=ADVANCED_FACE('',(#361,#362),#38,.T.);
#411=ADVANCED_FACE('',(#363,#364),#387,.F.);
#412=ADVANCED_FACE('',(#365,#366),#388,.F.);
#413=ADVANCED_FACE('',(#367,#368),#26,.F.);
#414=ADVANCED_FACE('',(#369,#370),#39,.T.);
#415=ADVANCED_FACE('',(#371,#372),#389,.F.);
#416=ADVANCED_FACE('',(#373,#374),#390,.F.);
#417=ADVANCED_FACE('',(#375,#376),#27,.F.);
#418=ADVANCED_FACE('',(#377,#378),#40,.T.);
#419=ADVANCED_FACE('',(#379,#380),#391,.F.);
#420=CLOSED_SHELL('',(#392,#393,#394,#395,#396,#397,#398,#399,#400,#401,
#402,#403,#404,#405,#406,#407,#408,#409,#410,#411,#412,#413,#414,#415,#416,
#417,#418,#419));
#421=STYLED_ITEM('',(#422),#429);
#422=PRESENTATION_STYLE_ASSIGNMENT((#423));
#423=SURFACE_STYLE_USAGE(.BOTH.,#424);
#424=SURFACE_SIDE_STYLE('',(#425));
#425=SURFACE_STYLE_FILL_AREA(#426);
#426=FILL_AREA_STYLE('',(#427));
#427=FILL_AREA_STYLE_COLOUR('',#428);
#428=COLOUR_RGB('',0.689999997615814,0.689999997615814,0.689999997615814);
#429=MANIFOLD_SOLID_BREP('6701 FR-4-1/8-B - P1',#420);
#430=SHAPE_DEFINITION_REPRESENTATION(#742,#432);
#431=SHAPE_DEFINITION_REPRESENTATION(#743,#433);
#432=SHAPE_REPRESENTATION('6701 FR-4-1/8-B',(#434,#491),#735);
#433=SHAPE_REPRESENTATION('6701 FR-4-1/8-B - P1',(#434),#736);
#434=AXIS2_PLACEMENT_3D('',#624,#492,#493);
#435=AXIS2_PLACEMENT_3D('',#625,#494,#495);
#436=AXIS2_PLACEMENT_3D('',#626,#496,#497);
#437=AXIS2_PLACEMENT_3D('',#629,#498,#499);
#438=AXIS2_PLACEMENT_3D('',#630,#500,#501);
#439=AXIS2_PLACEMENT_3D('',#633,#502,#503);
#440=AXIS2_PLACEMENT_3D('',#634,#504,#505);
#441=AXIS2_PLACEMENT_3D('',#637,#506,#507);
#442=AXIS2_PLACEMENT_3D('',#638,#508,#509);
#443=AXIS2_PLACEMENT_3D('',#640,#510,#511);
#444=AXIS2_PLACEMENT_3D('',#643,#513,#514);
#445=AXIS2_PLACEMENT_3D('',#646,#516,#517);
#446=AXIS2_PLACEMENT_3D('',#647,#518,#519);
#447=AXIS2_PLACEMENT_3D('',#649,#521,#522);
#448=AXIS2_PLACEMENT_3D('',#650,#523,#524);
#449=AXIS2_PLACEMENT_3D('',#652,#525,#526);
#450=AXIS2_PLACEMENT_3D('',#662,#531,#532);
#451=AXIS2_PLACEMENT_3D('',#663,#533,#534);
#452=AXIS2_PLACEMENT_3D('',#665,#535,#536);
#453=AXIS2_PLACEMENT_3D('',#667,#537,#538);
#454=AXIS2_PLACEMENT_3D('',#674,#542,#543);
#455=AXIS2_PLACEMENT_3D('',#675,#544,#545);
#456=AXIS2_PLACEMENT_3D('',#677,#546,#547);
#457=AXIS2_PLACEMENT_3D('',#684,#551,#552);
#458=AXIS2_PLACEMENT_3D('',#687,#555,#556);
#459=AXIS2_PLACEMENT_3D('',#688,#557,#558);
#460=AXIS2_PLACEMENT_3D('',#689,#559,#560);
#461=AXIS2_PLACEMENT_3D('',#691,#561,#562);
#462=AXIS2_PLACEMENT_3D('',#692,#563,#564);
#463=AXIS2_PLACEMENT_3D('',#693,#565,#566);
#464=AXIS2_PLACEMENT_3D('',#694,#567,#568);
#465=AXIS2_PLACEMENT_3D('',#696,#569,#570);
#466=AXIS2_PLACEMENT_3D('',#697,#571,#572);
#467=AXIS2_PLACEMENT_3D('',#699,#573,#574);
#468=AXIS2_PLACEMENT_3D('',#700,#575,#576);
#469=AXIS2_PLACEMENT_3D('',#702,#578,#579);
#470=AXIS2_PLACEMENT_3D('',#703,#580,#581);
#471=AXIS2_PLACEMENT_3D('',#704,#582,#583);
#472=AXIS2_PLACEMENT_3D('',#706,#584,#585);
#473=AXIS2_PLACEMENT_3D('',#707,#586,#587);
#474=AXIS2_PLACEMENT_3D('',#709,#588,#589);
#475=AXIS2_PLACEMENT_3D('',#710,#590,#591);
#476=AXIS2_PLACEMENT_3D('',#712,#592,#593);
#477=AXIS2_PLACEMENT_3D('',#713,#594,#595);
#478=AXIS2_PLACEMENT_3D('',#714,#596,#597);
#479=AXIS2_PLACEMENT_3D('',#716,#598,#599);
#480=AXIS2_PLACEMENT_3D('',#717,#600,#601);
#481=AXIS2_PLACEMENT_3D('',#719,#602,#603);
#482=AXIS2_PLACEMENT_3D('',#720,#604,#605);
#483=AXIS2_PLACEMENT_3D('',#722,#606,#607);
#484=AXIS2_PLACEMENT_3D('',#723,#608,#609);
#485=AXIS2_PLACEMENT_3D('',#724,#610,#611);
#486=AXIS2_PLACEMENT_3D('',#726,#612,#613);
#487=AXIS2_PLACEMENT_3D('',#727,#614,#615);
#488=AXIS2_PLACEMENT_3D('',#729,#616,#617);
#489=AXIS2_PLACEMENT_3D('',#730,#618,#619);
#490=AXIS2_PLACEMENT_3D('',#732,#620,#621);
#491=AXIS2_PLACEMENT_3D('',#733,#622,#623);
#492=DIRECTION('',(0.,0.,1.));
#493=DIRECTION('',(1.,0.,0.));
#494=DIRECTION('',(1.,0.,0.));
#495=DIRECTION('',(0.,0.,-1.));
#496=DIRECTION('',(1.,0.,0.));
#497=DIRECTION('',(0.,0.,-1.));
#498=DIRECTION('',(0.707106781186547,0.,0.707106781186547));
#499=DIRECTION('',(0.707106781186547,0.,-0.707106781186547));
#500=DIRECTION('',(0.707106781186547,0.,-0.707106781186547));
#501=DIRECTION('',(0.707106781186547,0.,0.707106781186547));
#502=DIRECTION('',(0.707106781186547,0.,0.707106781186547));
#503=DIRECTION('',(0.707106781186547,0.,-0.707106781186547));
#504=DIRECTION('',(0.707106781186547,0.,-0.707106781186547));
#505=DIRECTION('',(0.707106781186547,0.,0.707106781186547));
#506=DIRECTION('',(0.707106781186547,0.,0.707106781186547));
#507=DIRECTION('',(0.707106781186547,0.,-0.707106781186547));
#508=DIRECTION('',(1.,0.,0.));
#509=DIRECTION('',(0.,0.,-1.));
#510=DIRECTION('',(1.,0.,0.));
#511=DIRECTION('',(0.,0.,-1.));
#512=DIRECTION('',(1.,0.,0.));
#513=DIRECTION('',(0.707106781186547,0.,-0.707106781186547));
#514=DIRECTION('',(0.707106781186547,0.,0.707106781186547));
#515=DIRECTION('',(1.,0.,0.));
#516=DIRECTION('',(1.,0.,0.));
#517=DIRECTION('',(0.,0.,-1.));
#518=DIRECTION('',(-1.,0.,0.));
#519=DIRECTION('',(0.,0.,1.));
#520=DIRECTION('',(0.,-1.,0.));
#521=DIRECTION('',(0.,-1.,0.));
#522=DIRECTION('',(0.,0.,-1.));
#523=DIRECTION('',(0.,1.,0.));
#524=DIRECTION('',(1.,0.,0.));
#525=DIRECTION('',(0.,1.,0.));
#526=DIRECTION('',(-1.,0.,0.));
#527=DIRECTION('',(0.,0.,1.));
#528=DIRECTION('',(-1.,0.,0.));
#529=DIRECTION('',(0.,0.,1.));
#530=DIRECTION('',(-1.,0.,0.));
#531=DIRECTION('',(0.,0.,-1.));
#532=DIRECTION('',(-1.,0.,0.));
#533=DIRECTION('',(0.,0.,1.));
#534=DIRECTION('',(1.,0.,0.));
#535=DIRECTION('',(0.,0.,1.));
#536=DIRECTION('',(1.,0.,0.));
#537=DIRECTION('',(0.,0.,1.));
#538=DIRECTION('',(1.,0.,0.));
#539=DIRECTION('',(0.,-1.,0.));
#540=DIRECTION('',(-1.,0.,0.));
#541=DIRECTION('',(0.,-1.,0.));
#542=DIRECTION('',(0.,1.,0.));
#543=DIRECTION('',(0.,0.,1.));
#544=DIRECTION('',(0.,1.,0.));
#545=DIRECTION('',(1.,0.,0.));
#546=DIRECTION('',(0.,1.,0.));
#547=DIRECTION('',(-1.,0.,0.));
#548=DIRECTION('',(0.,0.,-1.));
#549=DIRECTION('',(-1.,0.,0.));
#550=DIRECTION('',(0.,0.,-1.));
#551=DIRECTION('',(0.,0.,1.));
#552=DIRECTION('',(1.,0.,0.));
#553=DIRECTION('',(0.,1.,0.));
#554=DIRECTION('',(0.,1.,0.));
#555=DIRECTION('',(1.,0.,0.));
#556=DIRECTION('',(0.,0.,-1.));
#557=DIRECTION('',(1.,0.,0.));
#558=DIRECTION('',(0.,0.,-1.));
#559=DIRECTION('',(1.,0.,0.));
#560=DIRECTION('',(0.,0.,-1.));
#561=DIRECTION('',(0.,1.,0.));
#562=DIRECTION('',(0.,0.,1.));
#563=DIRECTION('',(0.,1.,0.));
#564=DIRECTION('',(0.,0.,1.));
#565=DIRECTION('',(1.,0.,0.));
#566=DIRECTION('',(0.,0.,-1.));
#567=DIRECTION('',(1.,0.,0.));
#568=DIRECTION('',(0.,0.,-1.));
#569=DIRECTION('',(-1.,0.,0.));
#570=DIRECTION('',(0.,0.,1.));
#571=DIRECTION('',(1.,0.,0.));
#572=DIRECTION('',(0.,0.,-1.));
#573=DIRECTION('',(-1.,0.,0.));
#574=DIRECTION('',(0.,0.,1.));
#575=DIRECTION('',(-1.,0.,0.));
#576=DIRECTION('',(0.,0.,1.));
#577=DIRECTION('',(0.,1.,-1.22464679914735E-16));
#578=DIRECTION('',(0.,0.,-1.));
#579=DIRECTION('',(-1.,0.,0.));
#580=DIRECTION('',(0.,0.,1.));
#581=DIRECTION('',(1.,0.,0.));
#582=DIRECTION('',(0.,0.,1.));
#583=DIRECTION('',(1.,0.,0.));
#584=DIRECTION('',(0.,0.,1.));
#585=DIRECTION('',(1.,0.,0.));
#586=DIRECTION('',(0.,0.,1.));
#587=DIRECTION('',(1.,0.,0.));
#588=DIRECTION('',(0.,0.,1.));
#589=DIRECTION('',(1.,0.,0.));
#590=DIRECTION('',(0.,0.,1.));
#591=DIRECTION('',(1.,0.,0.));
#592=DIRECTION('',(0.,0.,1.));
#593=DIRECTION('',(1.,0.,0.));
#594=DIRECTION('',(0.,0.,1.));
#595=DIRECTION('',(1.,0.,0.));
#596=DIRECTION('',(0.,0.,1.));
#597=DIRECTION('',(1.,0.,0.));
#598=DIRECTION('',(0.,0.,1.));
#599=DIRECTION('',(1.,0.,0.));
#600=DIRECTION('',(0.,0.,1.));
#601=DIRECTION('',(1.,0.,0.));
#602=DIRECTION('',(0.,0.,1.));
#603=DIRECTION('',(1.,0.,0.));
#604=DIRECTION('',(0.,0.,1.));
#605=DIRECTION('',(1.,0.,0.));
#606=DIRECTION('',(0.,0.,1.));
#607=DIRECTION('',(1.,0.,0.));
#608=DIRECTION('',(0.,0.,1.));
#609=DIRECTION('',(1.,0.,0.));
#610=DIRECTION('',(0.,0.,1.));
#611=DIRECTION('',(1.,0.,0.));
#612=DIRECTION('',(0.,0.,1.));
#613=DIRECTION('',(1.,0.,0.));
#614=DIRECTION('',(0.,0.,1.));
#615=DIRECTION('',(1.,0.,0.));
#616=DIRECTION('',(0.,0.,1.));
#617=DIRECTION('',(1.,0.,0.));
#618=DIRECTION('',(0.,0.,1.));
#619=DIRECTION('',(1.,0.,0.));
#620=DIRECTION('',(0.,0.,1.));
#621=DIRECTION('',(1.,0.,0.));
#622=DIRECTION('',(1.,0.,0.));
#623=DIRECTION('',(0.,0.,-1.));
#624=CARTESIAN_POINT('',(0.,0.,0.));
#625=CARTESIAN_POINT('',(47.5,8.5,8.4));
#626=CARTESIAN_POINT('',(47.5,8.5,8.4));
#627=CARTESIAN_POINT('',(47.5,4.217,8.4));
#628=CARTESIAN_POINT('',(47.5,12.783,8.4));
#629=CARTESIAN_POINT('',(47.5,8.5,8.4));
#630=CARTESIAN_POINT('',(30.5,8.5,8.4));
#631=CARTESIAN_POINT('',(30.5,4.217,8.4));
#632=CARTESIAN_POINT('',(30.5,12.783,8.4));
#633=CARTESIAN_POINT('',(30.5,8.5,8.4));
#634=CARTESIAN_POINT('',(13.5,8.5,8.4));
#635=CARTESIAN_POINT('',(13.5,4.217,8.4));
#636=CARTESIAN_POINT('',(13.5,12.783,8.4));
#637=CARTESIAN_POINT('',(13.5,8.5,8.4));
#638=CARTESIAN_POINT('',(0.981000000000003,8.5,8.4));
#639=CARTESIAN_POINT('',(0.981000000000003,8.5,4.117));
#640=CARTESIAN_POINT('',(47.5,8.5,8.4));
#641=CARTESIAN_POINT('',(47.5,4.217,8.4));
#642=CARTESIAN_POINT('',(53.3368,4.217,8.4));
#643=CARTESIAN_POINT('',(47.5,8.5,8.4));
#644=CARTESIAN_POINT('',(47.5,12.783,8.4));
#645=CARTESIAN_POINT('',(53.3368,12.783,8.4));
#646=CARTESIAN_POINT('',(53.3368,8.5,8.4));
#647=CARTESIAN_POINT('',(47.5,12.783,8.4));
#648=CARTESIAN_POINT('',(47.5,12.783,8.4));
#649=CARTESIAN_POINT('',(56.,17.,0.));
#650=CARTESIAN_POINT('',(5.,17.,16.5));
#651=CARTESIAN_POINT('',(7.2,17.,16.5));
#652=CARTESIAN_POINT('',(51.,17.,3.5));
#653=CARTESIAN_POINT('',(48.8,17.,3.5));
#654=CARTESIAN_POINT('',(0.,17.,0.));
#655=CARTESIAN_POINT('',(0.,17.,0.));
#656=CARTESIAN_POINT('',(0.,17.,20.));
#657=CARTESIAN_POINT('',(56.,17.,20.));
#658=CARTESIAN_POINT('',(56.,17.,20.));
#659=CARTESIAN_POINT('',(56.,17.,0.));
#660=CARTESIAN_POINT('',(56.,17.,0.));
#661=CARTESIAN_POINT('',(56.,17.,0.));
#662=CARTESIAN_POINT('',(56.,17.,20.));
#663=CARTESIAN_POINT('',(47.5,8.5,20.));
#664=CARTESIAN_POINT('',(55.,8.5,20.));
#665=CARTESIAN_POINT('',(30.5,8.5,20.));
#666=CARTESIAN_POINT('',(38.,8.5,20.));
#667=CARTESIAN_POINT('',(13.5,8.5,20.));
#668=CARTESIAN_POINT('',(21.,8.5,20.));
#669=CARTESIAN_POINT('',(0.,17.,20.));
#670=CARTESIAN_POINT('',(0.,0.,20.));
#671=CARTESIAN_POINT('',(56.,0.,20.));
#672=CARTESIAN_POINT('',(56.,0.,20.));
#673=CARTESIAN_POINT('',(56.,17.,20.));
#674=CARTESIAN_POINT('',(56.,0.,20.));
#675=CARTESIAN_POINT('',(5.,0.,16.5));
#676=CARTESIAN_POINT('',(7.2,0.,16.5));
#677=CARTESIAN_POINT('',(51.,0.,3.5));
#678=CARTESIAN_POINT('',(48.8,0.,3.5));
#679=CARTESIAN_POINT('',(0.,0.,20.));
#680=CARTESIAN_POINT('',(0.,0.,0.));
#681=CARTESIAN_POINT('',(56.,0.,0.));
#682=CARTESIAN_POINT('',(56.,0.,0.));
#683=CARTESIAN_POINT('',(56.,0.,20.));
#684=CARTESIAN_POINT('',(56.,0.,0.));
#685=CARTESIAN_POINT('',(0.,0.,0.));
#686=CARTESIAN_POINT('',(56.,0.,0.));
#687=CARTESIAN_POINT('',(56.,0.,0.));
#688=CARTESIAN_POINT('',(0.,0.,0.));
#689=CARTESIAN_POINT('',(0.,8.5,8.4));
#690=CARTESIAN_POINT('',(0.,8.5,0.900000000000001));
#691=CARTESIAN_POINT('',(51.,0.,3.5));
#692=CARTESIAN_POINT('',(5.,0.,16.5));
#693=CARTESIAN_POINT('',(47.5,8.5,8.4));
#694=CARTESIAN_POINT('',(0.399999999999998,8.5,8.4));
#695=CARTESIAN_POINT('',(0.399999999999998,8.5,0.900000000000001));
#696=CARTESIAN_POINT('',(0.4,16.,8.4));
#697=CARTESIAN_POINT('',(0.399999999999998,8.5,8.4));
#698=CARTESIAN_POINT('',(0.399999999999998,8.5,3.536));
#699=CARTESIAN_POINT('',(0.399999999999998,8.5,8.4));
#700=CARTESIAN_POINT('',(53.3368,12.783,8.4));
#701=CARTESIAN_POINT('',(53.3368,4.217,8.4));
#702=CARTESIAN_POINT('',(0.,0.,8.4));
#703=CARTESIAN_POINT('',(13.5,8.5,20.));
#704=CARTESIAN_POINT('',(13.5,8.5,19.019));
#705=CARTESIAN_POINT('',(17.783,8.5,19.019));
#706=CARTESIAN_POINT('',(13.5,8.5,19.019));
#707=CARTESIAN_POINT('',(13.5,8.5,19.6));
#708=CARTESIAN_POINT('',(18.364,8.5,19.6));
#709=CARTESIAN_POINT('',(18.364,8.5,19.6));
#710=CARTESIAN_POINT('',(13.5,8.5,19.6));
#711=CARTESIAN_POINT('',(21.,8.5,19.6));
#712=CARTESIAN_POINT('',(13.5,8.5,20.));
#713=CARTESIAN_POINT('',(30.5,8.5,20.));
#714=CARTESIAN_POINT('',(30.5,8.5,19.019));
#715=CARTESIAN_POINT('',(34.783,8.5,19.019));
#716=CARTESIAN_POINT('',(30.5,8.5,19.019));
#717=CARTESIAN_POINT('',(30.5,8.5,19.6));
#718=CARTESIAN_POINT('',(35.364,8.5,19.6));
#719=CARTESIAN_POINT('',(35.364,8.5,19.6));
#720=CARTESIAN_POINT('',(30.5,8.5,19.6));
#721=CARTESIAN_POINT('',(38.,8.5,19.6));
#722=CARTESIAN_POINT('',(30.5,8.5,20.));
#723=CARTESIAN_POINT('',(47.5,8.5,20.));
#724=CARTESIAN_POINT('',(47.5,8.5,19.019));
#725=CARTESIAN_POINT('',(51.783,8.5,19.019));
#726=CARTESIAN_POINT('',(47.5,8.5,19.019));
#727=CARTESIAN_POINT('',(47.5,8.5,19.6));
#728=CARTESIAN_POINT('',(52.364,8.5,19.6));
#729=CARTESIAN_POINT('',(52.364,8.5,19.6));
#730=CARTESIAN_POINT('',(47.5,8.5,19.6));
#731=CARTESIAN_POINT('',(55.,8.5,19.6));
#732=CARTESIAN_POINT('',(47.5,8.5,20.));
#733=CARTESIAN_POINT('',(-10.,-8.50000000000001,28.));
#734=MECHANICAL_DESIGN_GEOMETRIC_PRESENTATION_REPRESENTATION('',(#421),
#735);
#735=(
GEOMETRIC_REPRESENTATION_CONTEXT(3)
GLOBAL_UNCERTAINTY_ASSIGNED_CONTEXT((#737))
GLOBAL_UNIT_ASSIGNED_CONTEXT((#741,#740,#739))
REPRESENTATION_CONTEXT('6701 FR-4-1/8-B','TOP_LEVEL_ASSEMBLY_PART')
);
#736=(
GEOMETRIC_REPRESENTATION_CONTEXT(3)
GLOBAL_UNCERTAINTY_ASSIGNED_CONTEXT((#738))
GLOBAL_UNIT_ASSIGNED_CONTEXT((#741,#740,#739))
REPRESENTATION_CONTEXT('6701 FR-4-1/8-B - P1','COMPONENT_PART')
);
#737=UNCERTAINTY_MEASURE_WITH_UNIT(LENGTH_MEASURE(0.005),#741,
'DISTANCE_ACCURACY_VALUE','Maximum Tolerance applied to model');
#738=UNCERTAINTY_MEASURE_WITH_UNIT(LENGTH_MEASURE(0.005),#741,
'DISTANCE_ACCURACY_VALUE','Maximum Tolerance applied to model');
#739=(
NAMED_UNIT(*)
SI_UNIT($,.STERADIAN.)
SOLID_ANGLE_UNIT()
);
#740=(
NAMED_UNIT(*)
PLANE_ANGLE_UNIT()
SI_UNIT($,.RADIAN.)
);
#741=(
LENGTH_UNIT()
NAMED_UNIT(*)
SI_UNIT(.MILLI.,.METRE.)
);
#742=PRODUCT_DEFINITION_SHAPE('','',#745);
#743=PRODUCT_DEFINITION_SHAPE('','',#746);
#744=PRODUCT_DEFINITION_SHAPE(' ','NAUO PRDDFN',#19);
#745=PRODUCT_DEFINITION('','',#749,#747);
#746=PRODUCT_DEFINITION('','',#750,#748);
#747=PRODUCT_DEFINITION_CONTEXT('',#760,'design');
#748=PRODUCT_DEFINITION_CONTEXT('',#760,'design');
#749=PRODUCT_DEFINITION_FORMATION_WITH_SPECIFIED_SOURCE('','',#753,
 .NOT_KNOWN.);
#750=PRODUCT_DEFINITION_FORMATION_WITH_SPECIFIED_SOURCE('','',#754,
 .NOT_KNOWN.);
#751=PRODUCT_RELATED_PRODUCT_CATEGORY('','',(#753));
#752=PRODUCT_RELATED_PRODUCT_CATEGORY('','',(#754));
#753=PRODUCT('6701 FR-4-1/8-B','6701 FR-4-1/8-B','6701 FR-4-1/8-B',(#757));
#754=PRODUCT('6701 FR-4-1/8-B - P1','6701 FR-4-1/8-B - P1',
'6701 FR-4-1/8-B - P1',(#758));
#755=PRODUCT_CATEGORY('','');
#756=PRODUCT_CATEGORY('','');
#757=PRODUCT_CONTEXT('',#760,'mechanical');
#758=PRODUCT_CONTEXT('',#760,'mechanical');
#759=APPLICATION_PROTOCOL_DEFINITION('international standard',
'automotive_design',2010,#760);
#760=APPLICATION_CONTEXT(
'core data for automotive mechanical design processes');
ENDSEC;
END-ISO-10303-21;
