ISO-10303-21;
HEADER;
/* Generated by software containing ST-Developer
 * from STEP Tools, Inc. (www.steptools.com) 
 */
/* OPTION: using custom renumber hook */

FILE_DESCRIPTION(
/* description */ ('STEP AP214'),
/* implementation_level */ '2;1');

FILE_NAME(
/* name */ '567785_QBH-1_2-3_8-U',
/* time_stamp */ '2024-09-14T02:16:04+02:00',
/* author */ ('License CC BY-ND 4.0'),
/* organization */ ('CADENAS'),
/* preprocessor_version */ 'ST-DEVELOPER v19.3',
/* originating_system */ 'PARTsolutions',
/* authorisation */ '  ');

FILE_SCHEMA (('AUTOMOTIVE_DESIGN {1 0 10303 214 3 1 1}'));
ENDSEC;

DATA;
#10=PROPERTY_DEFINITION_REPRESENTATION(#14,#12);
#11=PROPERTY_DEFINITION_REPRESENTATION(#15,#13);
#12=REPRESENTATION('',(#16),#237);
#13=REPRESENTATION('',(#17),#237);
#14=PROPERTY_DEFINITION('pmi validation property','',#242);
#15=PROPERTY_DEFINITION('pmi validation property','',#242);
#16=VALUE_REPRESENTATION_ITEM('number of annotations',COUNT_MEASURE(0.));
#17=VALUE_REPRESENTATION_ITEM('number of views',COUNT_MEASURE(0.));
#18=SHAPE_REPRESENTATION_RELATIONSHIP('','',#141,#19);
#19=ADVANCED_BREP_SHAPE_REPRESENTATION('',(#139),#237);
#20=CYLINDRICAL_SURFACE('',#150,3.25);
#21=CYLINDRICAL_SURFACE('',#158,4.7625);
#22=CYLINDRICAL_SURFACE('',#162,6.3);
#23=PLANE('',#146);
#24=PLANE('',#154);
#25=ORIENTED_EDGE('',*,*,#45,.T.);
#26=ORIENTED_EDGE('',*,*,#46,.F.);
#27=ORIENTED_EDGE('',*,*,#47,.T.);
#28=ORIENTED_EDGE('',*,*,#45,.F.);
#29=ORIENTED_EDGE('',*,*,#48,.T.);
#30=ORIENTED_EDGE('',*,*,#47,.F.);
#31=ORIENTED_EDGE('',*,*,#49,.T.);
#32=ORIENTED_EDGE('',*,*,#48,.F.);
#33=ORIENTED_EDGE('',*,*,#50,.T.);
#34=ORIENTED_EDGE('',*,*,#49,.F.);
#35=ORIENTED_EDGE('',*,*,#51,.T.);
#36=ORIENTED_EDGE('',*,*,#50,.F.);
#37=ORIENTED_EDGE('',*,*,#52,.T.);
#38=ORIENTED_EDGE('',*,*,#51,.F.);
#39=ORIENTED_EDGE('',*,*,#53,.T.);
#40=ORIENTED_EDGE('',*,*,#52,.F.);
#41=ORIENTED_EDGE('',*,*,#54,.T.);
#42=ORIENTED_EDGE('',*,*,#53,.F.);
#43=ORIENTED_EDGE('',*,*,#46,.T.);
#44=ORIENTED_EDGE('',*,*,#54,.F.);
#45=EDGE_CURVE('',#55,#55,#65,.T.);
#46=EDGE_CURVE('',#56,#56,#66,.T.);
#47=EDGE_CURVE('',#57,#57,#67,.T.);
#48=EDGE_CURVE('',#58,#58,#68,.T.);
#49=EDGE_CURVE('',#59,#59,#69,.T.);
#50=EDGE_CURVE('',#60,#60,#70,.T.);
#51=EDGE_CURVE('',#61,#61,#71,.T.);
#52=EDGE_CURVE('',#62,#62,#72,.T.);
#53=EDGE_CURVE('',#63,#63,#73,.T.);
#54=EDGE_CURVE('',#64,#64,#74,.T.);
#55=VERTEX_POINT('',#208);
#56=VERTEX_POINT('',#210);
#57=VERTEX_POINT('',#213);
#58=VERTEX_POINT('',#216);
#59=VERTEX_POINT('',#219);
#60=VERTEX_POINT('',#222);
#61=VERTEX_POINT('',#225);
#62=VERTEX_POINT('',#228);
#63=VERTEX_POINT('',#231);
#64=VERTEX_POINT('',#234);
#65=CIRCLE('',#144,6.15857864376269);
#66=CIRCLE('',#145,6.3);
#67=CIRCLE('',#147,3.7424038765061);
#68=CIRCLE('',#149,3.25);
#69=CIRCLE('',#151,3.25);
#70=CIRCLE('',#153,3.34848077530122);
#71=CIRCLE('',#155,4.62107864376269);
#72=CIRCLE('',#157,4.7625);
#73=CIRCLE('',#159,4.7625);
#74=CIRCLE('',#161,6.3);
#75=EDGE_LOOP('',(#25));
#76=EDGE_LOOP('',(#26));
#77=EDGE_LOOP('',(#27));
#78=EDGE_LOOP('',(#28));
#79=EDGE_LOOP('',(#29));
#80=EDGE_LOOP('',(#30));
#81=EDGE_LOOP('',(#31));
#82=EDGE_LOOP('',(#32));
#83=EDGE_LOOP('',(#33));
#84=EDGE_LOOP('',(#34));
#85=EDGE_LOOP('',(#35));
#86=EDGE_LOOP('',(#36));
#87=EDGE_LOOP('',(#37));
#88=EDGE_LOOP('',(#38));
#89=EDGE_LOOP('',(#39));
#90=EDGE_LOOP('',(#40));
#91=EDGE_LOOP('',(#41));
#92=EDGE_LOOP('',(#42));
#93=EDGE_LOOP('',(#43));
#94=EDGE_LOOP('',(#44));
#95=FACE_BOUND('',#75,.T.);
#96=FACE_BOUND('',#76,.T.);
#97=FACE_BOUND('',#77,.T.);
#98=FACE_BOUND('',#78,.T.);
#99=FACE_BOUND('',#79,.T.);
#100=FACE_BOUND('',#80,.T.);
#101=FACE_BOUND('',#81,.T.);
#102=FACE_BOUND('',#82,.T.);
#103=FACE_BOUND('',#83,.T.);
#104=FACE_BOUND('',#84,.T.);
#105=FACE_BOUND('',#85,.T.);
#106=FACE_BOUND('',#86,.T.);
#107=FACE_BOUND('',#87,.T.);
#108=FACE_BOUND('',#88,.T.);
#109=FACE_BOUND('',#89,.T.);
#110=FACE_BOUND('',#90,.T.);
#111=FACE_BOUND('',#91,.T.);
#112=FACE_BOUND('',#92,.T.);
#113=FACE_BOUND('',#93,.T.);
#114=FACE_BOUND('',#94,.T.);
#115=CONICAL_SURFACE('',#143,6.3,0.785398163397461);
#116=CONICAL_SURFACE('',#148,3.7424038765061,1.39626340159546);
#117=CONICAL_SURFACE('',#152,3.25,1.39626340159539);
#118=CONICAL_SURFACE('',#156,4.62107864376269,0.785398163397446);
#119=CONICAL_SURFACE('',#160,4.7625,1.0471975511966);
#120=ADVANCED_FACE('',(#95,#96),#115,.T.);
#121=ADVANCED_FACE('',(#97,#98),#23,.T.);
#122=ADVANCED_FACE('',(#99,#100),#116,.F.);
#123=ADVANCED_FACE('',(#101,#102),#20,.F.);
#124=ADVANCED_FACE('',(#103,#104),#117,.F.);
#125=ADVANCED_FACE('',(#105,#106),#24,.T.);
#126=ADVANCED_FACE('',(#107,#108),#118,.T.);
#127=ADVANCED_FACE('',(#109,#110),#21,.T.);
#128=ADVANCED_FACE('',(#111,#112),#119,.T.);
#129=ADVANCED_FACE('',(#113,#114),#22,.T.);
#130=CLOSED_SHELL('',(#120,#121,#122,#123,#124,#125,#126,#127,#128,#129));
#131=STYLED_ITEM('',(#132),#139);
#132=PRESENTATION_STYLE_ASSIGNMENT((#133));
#133=SURFACE_STYLE_USAGE(.BOTH.,#134);
#134=SURFACE_SIDE_STYLE('',(#135));
#135=SURFACE_STYLE_FILL_AREA(#136);
#136=FILL_AREA_STYLE('',(#137));
#137=FILL_AREA_STYLE_COLOUR('',#138);
#138=COLOUR_RGB('',0.119999997317791,0.119999997317791,0.119999997317791);
#139=MANIFOLD_SOLID_BREP('567785 QBH-1/2-3/8-U',#130);
#140=SHAPE_DEFINITION_REPRESENTATION(#242,#141);
#141=SHAPE_REPRESENTATION('567785 QBH-1/2-3/8-U',(#142),#237);
#142=AXIS2_PLACEMENT_3D('',#205,#163,#164);
#143=AXIS2_PLACEMENT_3D('',#206,#165,#166);
#144=AXIS2_PLACEMENT_3D('',#207,#167,#168);
#145=AXIS2_PLACEMENT_3D('',#209,#169,#170);
#146=AXIS2_PLACEMENT_3D('',#211,#171,#172);
#147=AXIS2_PLACEMENT_3D('',#212,#173,#174);
#148=AXIS2_PLACEMENT_3D('',#214,#175,#176);
#149=AXIS2_PLACEMENT_3D('',#215,#177,#178);
#150=AXIS2_PLACEMENT_3D('',#217,#179,#180);
#151=AXIS2_PLACEMENT_3D('',#218,#181,#182);
#152=AXIS2_PLACEMENT_3D('',#220,#183,#184);
#153=AXIS2_PLACEMENT_3D('',#221,#185,#186);
#154=AXIS2_PLACEMENT_3D('',#223,#187,#188);
#155=AXIS2_PLACEMENT_3D('',#224,#189,#190);
#156=AXIS2_PLACEMENT_3D('',#226,#191,#192);
#157=AXIS2_PLACEMENT_3D('',#227,#193,#194);
#158=AXIS2_PLACEMENT_3D('',#229,#195,#196);
#159=AXIS2_PLACEMENT_3D('',#230,#197,#198);
#160=AXIS2_PLACEMENT_3D('',#232,#199,#200);
#161=AXIS2_PLACEMENT_3D('',#233,#201,#202);
#162=AXIS2_PLACEMENT_3D('',#235,#203,#204);
#163=DIRECTION('',(0.,0.,1.));
#164=DIRECTION('',(1.,0.,0.));
#165=DIRECTION('',(0.,0.,-1.));
#166=DIRECTION('',(-1.,0.,0.));
#167=DIRECTION('',(0.,0.,-1.));
#168=DIRECTION('',(-1.,0.,0.));
#169=DIRECTION('',(0.,0.,-1.));
#170=DIRECTION('',(-1.,0.,0.));
#171=DIRECTION('',(0.,0.,1.));
#172=DIRECTION('',(1.,0.,0.));
#173=DIRECTION('',(0.,0.,-1.));
#174=DIRECTION('',(-1.,0.,0.));
#175=DIRECTION('',(0.,0.,1.));
#176=DIRECTION('',(1.,0.,0.));
#177=DIRECTION('',(0.,0.,-1.));
#178=DIRECTION('',(-1.,0.,0.));
#179=DIRECTION('',(0.,0.,-1.));
#180=DIRECTION('',(-1.,0.,0.));
#181=DIRECTION('',(0.,0.,-1.));
#182=DIRECTION('',(-1.,0.,0.));
#183=DIRECTION('',(0.,0.,-1.));
#184=DIRECTION('',(-1.,0.,0.));
#185=DIRECTION('',(0.,0.,-1.));
#186=DIRECTION('',(-1.,0.,0.));
#187=DIRECTION('',(0.,0.,-1.));
#188=DIRECTION('',(-1.,0.,0.));
#189=DIRECTION('',(0.,0.,-1.));
#190=DIRECTION('',(-1.,0.,0.));
#191=DIRECTION('',(0.,0.,1.));
#192=DIRECTION('',(1.,0.,0.));
#193=DIRECTION('',(0.,0.,-1.));
#194=DIRECTION('',(-1.,0.,0.));
#195=DIRECTION('',(0.,0.,-1.));
#196=DIRECTION('',(-1.,0.,0.));
#197=DIRECTION('',(0.,0.,-1.));
#198=DIRECTION('',(-1.,0.,0.));
#199=DIRECTION('',(0.,0.,1.));
#200=DIRECTION('',(1.,0.,0.));
#201=DIRECTION('',(0.,0.,-1.));
#202=DIRECTION('',(-1.,0.,0.));
#203=DIRECTION('',(0.,0.,-1.));
#204=DIRECTION('',(-1.,0.,0.));
#205=CARTESIAN_POINT('',(0.,0.,0.));
#206=CARTESIAN_POINT('',(0.,0.,47.8585786437627));
#207=CARTESIAN_POINT('',(0.,0.,48.));
#208=CARTESIAN_POINT('',(-6.15857864376269,0.,48.));
#209=CARTESIAN_POINT('',(0.,0.,47.8585786437627));
#210=CARTESIAN_POINT('',(-6.3,0.,47.8585786437627));
#211=CARTESIAN_POINT('',(0.,6.15857864376269,48.));
#212=CARTESIAN_POINT('',(0.,0.,48.));
#213=CARTESIAN_POINT('',(-3.7424038765061,0.,48.));
#214=CARTESIAN_POINT('',(0.,0.,48.));
#215=CARTESIAN_POINT('',(0.,0.,47.9131759111665));
#216=CARTESIAN_POINT('',(-3.25,0.,47.9131759111665));
#217=CARTESIAN_POINT('',(0.,0.,0.));
#218=CARTESIAN_POINT('',(0.,0.,0.0173648177667005));
#219=CARTESIAN_POINT('',(-3.25,0.,0.0173648177667005));
#220=CARTESIAN_POINT('',(0.,0.,0.0173648177667005));
#221=CARTESIAN_POINT('',(0.,0.,0.));
#222=CARTESIAN_POINT('',(-3.34848077530122,0.,0.));
#223=CARTESIAN_POINT('',(0.,3.34848077530122,0.));
#224=CARTESIAN_POINT('',(0.,0.,0.));
#225=CARTESIAN_POINT('',(-4.62107864376269,0.,0.));
#226=CARTESIAN_POINT('',(0.,0.,0.));
#227=CARTESIAN_POINT('',(0.,0.,0.14142135623731));
#228=CARTESIAN_POINT('',(-4.7625,0.,0.14142135623731));
#229=CARTESIAN_POINT('',(0.,0.,0.));
#230=CARTESIAN_POINT('',(0.,0.,22.1123239611209));
#231=CARTESIAN_POINT('',(-4.7625,0.,22.1123239611209));
#232=CARTESIAN_POINT('',(0.,0.,22.1123239611209));
#233=CARTESIAN_POINT('',(0.,0.,23.));
#234=CARTESIAN_POINT('',(-6.3,0.,23.));
#235=CARTESIAN_POINT('',(0.,0.,0.));
#236=MECHANICAL_DESIGN_GEOMETRIC_PRESENTATION_REPRESENTATION('',(#131),
#237);
#237=(
GEOMETRIC_REPRESENTATION_CONTEXT(3)
GLOBAL_UNCERTAINTY_ASSIGNED_CONTEXT((#238))
GLOBAL_UNIT_ASSIGNED_CONTEXT((#241,#240,#239))
REPRESENTATION_CONTEXT('567785 QBH-1/2-3/8-U','TOP_LEVEL_ASSEMBLY_PART')
);
#238=UNCERTAINTY_MEASURE_WITH_UNIT(LENGTH_MEASURE(0.005),#241,
'DISTANCE_ACCURACY_VALUE','Maximum Tolerance applied to model');
#239=(
NAMED_UNIT(*)
SI_UNIT($,.STERADIAN.)
SOLID_ANGLE_UNIT()
);
#240=(
NAMED_UNIT(*)
PLANE_ANGLE_UNIT()
SI_UNIT($,.RADIAN.)
);
#241=(
LENGTH_UNIT()
NAMED_UNIT(*)
SI_UNIT(.MILLI.,.METRE.)
);
#242=PRODUCT_DEFINITION_SHAPE('','',#243);
#243=PRODUCT_DEFINITION('','',#245,#244);
#244=PRODUCT_DEFINITION_CONTEXT('',#251,'design');
#245=PRODUCT_DEFINITION_FORMATION_WITH_SPECIFIED_SOURCE('','',#247,
 .NOT_KNOWN.);
#246=PRODUCT_RELATED_PRODUCT_CATEGORY('','',(#247));
#247=PRODUCT('567785 QBH-1/2-3/8-U','567785 QBH-1/2-3/8-U',
'567785 QBH-1/2-3/8-U',(#249));
#248=PRODUCT_CATEGORY('','');
#249=PRODUCT_CONTEXT('',#251,'mechanical');
#250=APPLICATION_PROTOCOL_DEFINITION('international standard',
'automotive_design',2010,#251);
#251=APPLICATION_CONTEXT(
'core data for automotive mechanical design processes');
ENDSEC;
END-ISO-10303-21;
