ISO-10303-21;
HEADER;
/* Generated by software containing ST-Developer
 * from STEP Tools, Inc. (www.steptools.com) 
 */
/* OPTION: using custom renumber hook */

FILE_DESCRIPTION(
/* description */ ('STEP AP214'),
/* implementation_level */ '2;1');

FILE_NAME(
/* name */ '561133_VMPAL-ZAS-685',
/* time_stamp */ '2024-09-16T23:20:08+02:00',
/* author */ ('License CC BY-ND 4.0'),
/* organization */ ('CADENAS'),
/* preprocessor_version */ 'ST-DEVELOPER v19.3',
/* originating_system */ 'PARTsolutions',
/* authorisation */ '  ');

FILE_SCHEMA (('AUTOMOTIVE_DESIGN {1 0 10303 214 3 1 1}'));
ENDSEC;

DATA;
#10=PROPERTY_DEFINITION_REPRESENTATION(#14,#12);
#11=PROPERTY_DEFINITION_REPRESENTATION(#15,#13);
#12=REPRESENTATION('',(#16),#455);
#13=REPRESENTATION('',(#17),#455);
#14=PROPERTY_DEFINITION('pmi validation property','',#460);
#15=PROPERTY_DEFINITION('pmi validation property','',#460);
#16=VALUE_REPRESENTATION_ITEM('number of annotations',COUNT_MEASURE(0.));
#17=VALUE_REPRESENTATION_ITEM('number of views',COUNT_MEASURE(0.));
#18=SHAPE_REPRESENTATION_RELATIONSHIP('','',#271,#19);
#19=ADVANCED_BREP_SHAPE_REPRESENTATION('',(#269),#455);
#20=CONICAL_SURFACE('',#288,2.,0.785398163397448);
#21=CONICAL_SURFACE('',#293,1.6,0.785398163397503);
#22=PLANE('',#282);
#23=PLANE('',#284);
#24=PLANE('',#290);
#25=PLANE('',#291);
#26=PLANE('',#296);
#27=PLANE('',#297);
#28=PLANE('',#298);
#29=PLANE('',#299);
#30=PLANE('',#300);
#31=PLANE('',#301);
#32=PLANE('',#302);
#33=PLANE('',#303);
#34=LINE('',#389,#50);
#35=LINE('',#393,#51);
#36=LINE('',#397,#52);
#37=LINE('',#401,#53);
#38=LINE('',#402,#54);
#39=LINE('',#407,#55);
#40=LINE('',#411,#56);
#41=LINE('',#415,#57);
#42=LINE('',#419,#58);
#43=LINE('',#420,#59);
#44=LINE('',#426,#60);
#45=LINE('',#427,#61);
#46=LINE('',#443,#62);
#47=LINE('',#446,#63);
#48=LINE('',#449,#64);
#49=LINE('',#452,#65);
#50=VECTOR('',#310,1000.);
#51=VECTOR('',#313,1000.);
#52=VECTOR('',#316,1000.);
#53=VECTOR('',#319,1000.);
#54=VECTOR('',#320,1000.);
#55=VECTOR('',#323,1000.);
#56=VECTOR('',#326,1000.);
#57=VECTOR('',#329,1000.);
#58=VECTOR('',#334,1000.);
#59=VECTOR('',#335,1000.);
#60=VECTOR('',#342,1000.);
#61=VECTOR('',#343,1000.);
#62=VECTOR('',#366,1000.);
#63=VECTOR('',#371,1000.);
#64=VECTOR('',#376,1000.);
#65=VECTOR('',#381,1000.);
#66=ORIENTED_EDGE('',*,*,#126,.F.);
#67=ORIENTED_EDGE('',*,*,#127,.F.);
#68=ORIENTED_EDGE('',*,*,#128,.F.);
#69=ORIENTED_EDGE('',*,*,#129,.F.);
#70=ORIENTED_EDGE('',*,*,#130,.F.);
#71=ORIENTED_EDGE('',*,*,#131,.F.);
#72=ORIENTED_EDGE('',*,*,#132,.F.);
#73=ORIENTED_EDGE('',*,*,#133,.F.);
#74=ORIENTED_EDGE('',*,*,#134,.F.);
#75=ORIENTED_EDGE('',*,*,#135,.T.);
#76=ORIENTED_EDGE('',*,*,#136,.F.);
#77=ORIENTED_EDGE('',*,*,#137,.F.);
#78=ORIENTED_EDGE('',*,*,#138,.F.);
#79=ORIENTED_EDGE('',*,*,#139,.T.);
#80=ORIENTED_EDGE('',*,*,#140,.F.);
#81=ORIENTED_EDGE('',*,*,#141,.F.);
#82=ORIENTED_EDGE('',*,*,#139,.F.);
#83=ORIENTED_EDGE('',*,*,#142,.F.);
#84=ORIENTED_EDGE('',*,*,#135,.F.);
#85=ORIENTED_EDGE('',*,*,#143,.F.);
#86=ORIENTED_EDGE('',*,*,#144,.T.);
#87=ORIENTED_EDGE('',*,*,#145,.F.);
#88=ORIENTED_EDGE('',*,*,#146,.F.);
#89=ORIENTED_EDGE('',*,*,#126,.T.);
#90=ORIENTED_EDGE('',*,*,#147,.F.);
#91=ORIENTED_EDGE('',*,*,#130,.T.);
#92=ORIENTED_EDGE('',*,*,#148,.F.);
#93=ORIENTED_EDGE('',*,*,#145,.T.);
#94=ORIENTED_EDGE('',*,*,#149,.F.);
#95=ORIENTED_EDGE('',*,*,#148,.T.);
#96=ORIENTED_EDGE('',*,*,#149,.T.);
#97=ORIENTED_EDGE('',*,*,#150,.F.);
#98=ORIENTED_EDGE('',*,*,#151,.F.);
#99=ORIENTED_EDGE('',*,*,#150,.T.);
#100=ORIENTED_EDGE('',*,*,#144,.F.);
#101=ORIENTED_EDGE('',*,*,#151,.T.);
#102=ORIENTED_EDGE('',*,*,#131,.T.);
#103=ORIENTED_EDGE('',*,*,#147,.T.);
#104=ORIENTED_EDGE('',*,*,#133,.T.);
#105=ORIENTED_EDGE('',*,*,#152,.T.);
#106=ORIENTED_EDGE('',*,*,#132,.T.);
#107=ORIENTED_EDGE('',*,*,#152,.F.);
#108=ORIENTED_EDGE('',*,*,#128,.T.);
#109=ORIENTED_EDGE('',*,*,#153,.T.);
#110=ORIENTED_EDGE('',*,*,#127,.T.);
#111=ORIENTED_EDGE('',*,*,#146,.T.);
#112=ORIENTED_EDGE('',*,*,#129,.T.);
#113=ORIENTED_EDGE('',*,*,#153,.F.);
#114=ORIENTED_EDGE('',*,*,#138,.T.);
#115=ORIENTED_EDGE('',*,*,#154,.T.);
#116=ORIENTED_EDGE('',*,*,#136,.T.);
#117=ORIENTED_EDGE('',*,*,#142,.T.);
#118=ORIENTED_EDGE('',*,*,#137,.T.);
#119=ORIENTED_EDGE('',*,*,#154,.F.);
#120=ORIENTED_EDGE('',*,*,#141,.T.);
#121=ORIENTED_EDGE('',*,*,#155,.T.);
#122=ORIENTED_EDGE('',*,*,#134,.T.);
#123=ORIENTED_EDGE('',*,*,#155,.F.);
#124=ORIENTED_EDGE('',*,*,#140,.T.);
#125=ORIENTED_EDGE('',*,*,#143,.T.);
#126=EDGE_CURVE('',#156,#157,#178,.T.);
#127=EDGE_CURVE('',#158,#156,#34,.T.);
#128=EDGE_CURVE('',#159,#158,#179,.T.);
#129=EDGE_CURVE('',#160,#159,#35,.F.);
#130=EDGE_CURVE('',#161,#160,#180,.T.);
#131=EDGE_CURVE('',#162,#161,#36,.T.);
#132=EDGE_CURVE('',#163,#162,#181,.T.);
#133=EDGE_CURVE('',#157,#163,#37,.F.);
#134=EDGE_CURVE('',#164,#165,#38,.T.);
#135=EDGE_CURVE('',#164,#166,#182,.T.);
#136=EDGE_CURVE('',#167,#166,#39,.F.);
#137=EDGE_CURVE('',#168,#167,#183,.T.);
#138=EDGE_CURVE('',#169,#168,#40,.T.);
#139=EDGE_CURVE('',#169,#170,#184,.T.);
#140=EDGE_CURVE('',#171,#170,#41,.F.);
#141=EDGE_CURVE('',#165,#171,#185,.T.);
#142=EDGE_CURVE('',#166,#169,#42,.T.);
#143=EDGE_CURVE('',#170,#164,#43,.T.);
#144=EDGE_CURVE('',#172,#172,#186,.T.);
#145=EDGE_CURVE('',#173,#173,#187,.T.);
#146=EDGE_CURVE('',#156,#160,#44,.T.);
#147=EDGE_CURVE('',#161,#157,#45,.T.);
#148=EDGE_CURVE('',#174,#174,#188,.T.);
#149=EDGE_CURVE('',#175,#175,#189,.T.);
#150=EDGE_CURVE('',#176,#176,#190,.T.);
#151=EDGE_CURVE('',#177,#177,#191,.T.);
#152=EDGE_CURVE('',#163,#162,#46,.T.);
#153=EDGE_CURVE('',#158,#159,#47,.T.);
#154=EDGE_CURVE('',#168,#167,#48,.T.);
#155=EDGE_CURVE('',#171,#165,#49,.T.);
#156=VERTEX_POINT('',#387);
#157=VERTEX_POINT('',#388);
#158=VERTEX_POINT('',#390);
#159=VERTEX_POINT('',#392);
#160=VERTEX_POINT('',#394);
#161=VERTEX_POINT('',#396);
#162=VERTEX_POINT('',#398);
#163=VERTEX_POINT('',#400);
#164=VERTEX_POINT('',#403);
#165=VERTEX_POINT('',#404);
#166=VERTEX_POINT('',#406);
#167=VERTEX_POINT('',#408);
#168=VERTEX_POINT('',#410);
#169=VERTEX_POINT('',#412);
#170=VERTEX_POINT('',#414);
#171=VERTEX_POINT('',#416);
#172=VERTEX_POINT('',#422);
#173=VERTEX_POINT('',#425);
#174=VERTEX_POINT('',#430);
#175=VERTEX_POINT('',#433);
#176=VERTEX_POINT('',#437);
#177=VERTEX_POINT('',#440);
#178=CIRCLE('',#274,3.);
#179=CIRCLE('',#275,3.);
#180=CIRCLE('',#276,3.);
#181=CIRCLE('',#277,3.);
#182=CIRCLE('',#278,3.);
#183=CIRCLE('',#279,3.);
#184=CIRCLE('',#280,3.);
#185=CIRCLE('',#281,3.);
#186=CIRCLE('',#283,2.);
#187=CIRCLE('',#285,2.);
#188=CIRCLE('',#287,2.);
#189=CIRCLE('',#289,1.6);
#190=CIRCLE('',#292,1.6);
#191=CIRCLE('',#294,2.);
#192=EDGE_LOOP('',(#66,#67,#68,#69,#70,#71,#72,#73));
#193=EDGE_LOOP('',(#74,#75,#76,#77,#78,#79,#80,#81));
#194=EDGE_LOOP('',(#82,#83,#84,#85));
#195=EDGE_LOOP('',(#86));
#196=EDGE_LOOP('',(#87));
#197=EDGE_LOOP('',(#88,#89,#90,#91));
#198=EDGE_LOOP('',(#92));
#199=EDGE_LOOP('',(#93));
#200=EDGE_LOOP('',(#94));
#201=EDGE_LOOP('',(#95));
#202=EDGE_LOOP('',(#96));
#203=EDGE_LOOP('',(#97));
#204=EDGE_LOOP('',(#98));
#205=EDGE_LOOP('',(#99));
#206=EDGE_LOOP('',(#100));
#207=EDGE_LOOP('',(#101));
#208=EDGE_LOOP('',(#102,#103,#104,#105));
#209=EDGE_LOOP('',(#106,#107));
#210=EDGE_LOOP('',(#108,#109));
#211=EDGE_LOOP('',(#110,#111,#112,#113));
#212=EDGE_LOOP('',(#114,#115,#116,#117));
#213=EDGE_LOOP('',(#118,#119));
#214=EDGE_LOOP('',(#120,#121));
#215=EDGE_LOOP('',(#122,#123,#124,#125));
#216=FACE_BOUND('',#192,.T.);
#217=FACE_BOUND('',#193,.T.);
#218=FACE_BOUND('',#194,.T.);
#219=FACE_BOUND('',#195,.T.);
#220=FACE_BOUND('',#196,.T.);
#221=FACE_BOUND('',#197,.T.);
#222=FACE_BOUND('',#198,.T.);
#223=FACE_BOUND('',#199,.T.);
#224=FACE_BOUND('',#200,.T.);
#225=FACE_BOUND('',#201,.T.);
#226=FACE_BOUND('',#202,.T.);
#227=FACE_BOUND('',#203,.T.);
#228=FACE_BOUND('',#204,.T.);
#229=FACE_BOUND('',#205,.T.);
#230=FACE_BOUND('',#206,.T.);
#231=FACE_BOUND('',#207,.T.);
#232=FACE_BOUND('',#208,.T.);
#233=FACE_BOUND('',#209,.T.);
#234=FACE_BOUND('',#210,.T.);
#235=FACE_BOUND('',#211,.T.);
#236=FACE_BOUND('',#212,.T.);
#237=FACE_BOUND('',#213,.T.);
#238=FACE_BOUND('',#214,.T.);
#239=FACE_BOUND('',#215,.T.);
#240=CYLINDRICAL_SURFACE('',#273,3.);
#241=CYLINDRICAL_SURFACE('',#286,2.);
#242=CYLINDRICAL_SURFACE('',#295,2.);
#243=ADVANCED_FACE('',(#216,#217),#240,.T.);
#244=ADVANCED_FACE('',(#218,#219),#22,.F.);
#245=ADVANCED_FACE('',(#220,#221),#23,.F.);
#246=ADVANCED_FACE('',(#222,#223),#241,.T.);
#247=ADVANCED_FACE('',(#224,#225),#20,.T.);
#248=ADVANCED_FACE('',(#226),#24,.F.);
#249=ADVANCED_FACE('',(#227),#25,.F.);
#250=ADVANCED_FACE('',(#228,#229),#21,.T.);
#251=ADVANCED_FACE('',(#230,#231),#242,.T.);
#252=ADVANCED_FACE('',(#232),#26,.T.);
#253=ADVANCED_FACE('',(#233),#27,.T.);
#254=ADVANCED_FACE('',(#234),#28,.T.);
#255=ADVANCED_FACE('',(#235),#29,.T.);
#256=ADVANCED_FACE('',(#236),#30,.T.);
#257=ADVANCED_FACE('',(#237),#31,.T.);
#258=ADVANCED_FACE('',(#238),#32,.T.);
#259=ADVANCED_FACE('',(#239),#33,.T.);
#260=CLOSED_SHELL('',(#243,#244,#245,#246,#247,#248,#249,#250,#251,#252,
#253,#254,#255,#256,#257,#258,#259));
#261=STYLED_ITEM('',(#262),#269);
#262=PRESENTATION_STYLE_ASSIGNMENT((#263));
#263=SURFACE_STYLE_USAGE(.BOTH.,#264);
#264=SURFACE_SIDE_STYLE('',(#265));
#265=SURFACE_STYLE_FILL_AREA(#266);
#266=FILL_AREA_STYLE('',(#267));
#267=FILL_AREA_STYLE_COLOUR('',#268);
#268=COLOUR_RGB('',0.689999997615814,0.689999997615814,0.689999997615814);
#269=MANIFOLD_SOLID_BREP('561133 VMPAL-ZAS-685',#260);
#270=SHAPE_DEFINITION_REPRESENTATION(#460,#271);
#271=SHAPE_REPRESENTATION('561133 VMPAL-ZAS-685',(#272),#455);
#272=AXIS2_PLACEMENT_3D('',#384,#304,#305);
#273=AXIS2_PLACEMENT_3D('',#385,#306,#307);
#274=AXIS2_PLACEMENT_3D('',#386,#308,#309);
#275=AXIS2_PLACEMENT_3D('',#391,#311,#312);
#276=AXIS2_PLACEMENT_3D('',#395,#314,#315);
#277=AXIS2_PLACEMENT_3D('',#399,#317,#318);
#278=AXIS2_PLACEMENT_3D('',#405,#321,#322);
#279=AXIS2_PLACEMENT_3D('',#409,#324,#325);
#280=AXIS2_PLACEMENT_3D('',#413,#327,#328);
#281=AXIS2_PLACEMENT_3D('',#417,#330,#331);
#282=AXIS2_PLACEMENT_3D('',#418,#332,#333);
#283=AXIS2_PLACEMENT_3D('',#421,#336,#337);
#284=AXIS2_PLACEMENT_3D('',#423,#338,#339);
#285=AXIS2_PLACEMENT_3D('',#424,#340,#341);
#286=AXIS2_PLACEMENT_3D('',#428,#344,#345);
#287=AXIS2_PLACEMENT_3D('',#429,#346,#347);
#288=AXIS2_PLACEMENT_3D('',#431,#348,#349);
#289=AXIS2_PLACEMENT_3D('',#432,#350,#351);
#290=AXIS2_PLACEMENT_3D('',#434,#352,#353);
#291=AXIS2_PLACEMENT_3D('',#435,#354,#355);
#292=AXIS2_PLACEMENT_3D('',#436,#356,#357);
#293=AXIS2_PLACEMENT_3D('',#438,#358,#359);
#294=AXIS2_PLACEMENT_3D('',#439,#360,#361);
#295=AXIS2_PLACEMENT_3D('',#441,#362,#363);
#296=AXIS2_PLACEMENT_3D('',#442,#364,#365);
#297=AXIS2_PLACEMENT_3D('',#444,#367,#368);
#298=AXIS2_PLACEMENT_3D('',#445,#369,#370);
#299=AXIS2_PLACEMENT_3D('',#447,#372,#373);
#300=AXIS2_PLACEMENT_3D('',#448,#374,#375);
#301=AXIS2_PLACEMENT_3D('',#450,#377,#378);
#302=AXIS2_PLACEMENT_3D('',#451,#379,#380);
#303=AXIS2_PLACEMENT_3D('',#453,#382,#383);
#304=DIRECTION('',(0.,0.,1.));
#305=DIRECTION('',(1.,0.,0.));
#306=DIRECTION('',(0.,0.,-1.));
#307=DIRECTION('',(-1.,0.,0.));
#308=DIRECTION('',(0.,0.,-1.));
#309=DIRECTION('',(-1.,0.,0.));
#310=DIRECTION('',(0.,0.,-1.));
#311=DIRECTION('',(0.,0.,-1.));
#312=DIRECTION('',(-1.,0.,0.));
#313=DIRECTION('',(0.,0.,-1.));
#314=DIRECTION('',(0.,0.,-1.));
#315=DIRECTION('',(-1.,0.,0.));
#316=DIRECTION('',(0.,0.,-1.));
#317=DIRECTION('',(0.,0.,-1.));
#318=DIRECTION('',(-1.,0.,0.));
#319=DIRECTION('',(0.,0.,-1.));
#320=DIRECTION('',(0.,0.,-1.));
#321=DIRECTION('',(0.,0.,-1.));
#322=DIRECTION('',(-1.,0.,0.));
#323=DIRECTION('',(0.,0.,-1.));
#324=DIRECTION('',(0.,0.,1.));
#325=DIRECTION('',(1.,0.,0.));
#326=DIRECTION('',(0.,0.,-1.));
#327=DIRECTION('',(0.,0.,-1.));
#328=DIRECTION('',(-1.,0.,0.));
#329=DIRECTION('',(0.,0.,-1.));
#330=DIRECTION('',(0.,0.,1.));
#331=DIRECTION('',(1.,0.,0.));
#332=DIRECTION('',(0.,0.,-1.));
#333=DIRECTION('',(-1.,0.,0.));
#334=DIRECTION('',(0.,1.,0.));
#335=DIRECTION('',(0.,-1.,0.));
#336=DIRECTION('',(0.,0.,-1.));
#337=DIRECTION('',(-1.,0.,0.));
#338=DIRECTION('',(0.,0.,1.));
#339=DIRECTION('',(1.,0.,0.));
#340=DIRECTION('',(0.,0.,-1.));
#341=DIRECTION('',(-1.,0.,0.));
#342=DIRECTION('',(0.,-1.,0.));
#343=DIRECTION('',(0.,1.,0.));
#344=DIRECTION('',(0.,0.,-1.));
#345=DIRECTION('',(-1.,0.,0.));
#346=DIRECTION('',(0.,0.,-1.));
#347=DIRECTION('',(-1.,0.,0.));
#348=DIRECTION('',(0.,0.,1.));
#349=DIRECTION('',(1.,0.,0.));
#350=DIRECTION('',(0.,0.,-1.));
#351=DIRECTION('',(-1.,0.,0.));
#352=DIRECTION('',(0.,0.,1.));
#353=DIRECTION('',(1.,0.,0.));
#354=DIRECTION('',(0.,0.,-1.));
#355=DIRECTION('',(-1.,0.,0.));
#356=DIRECTION('',(0.,0.,-1.));
#357=DIRECTION('',(-1.,0.,0.));
#358=DIRECTION('',(0.,0.,-1.));
#359=DIRECTION('',(-1.,0.,0.));
#360=DIRECTION('',(0.,0.,-1.));
#361=DIRECTION('',(-1.,0.,0.));
#362=DIRECTION('',(0.,0.,-1.));
#363=DIRECTION('',(-1.,0.,0.));
#364=DIRECTION('',(1.,0.,0.));
#365=DIRECTION('',(0.,0.,-1.));
#366=DIRECTION('',(0.,-1.,0.));
#367=DIRECTION('',(0.,0.,-1.));
#368=DIRECTION('',(-1.,0.,0.));
#369=DIRECTION('',(0.,0.,-1.));
#370=DIRECTION('',(-1.,0.,0.));
#371=DIRECTION('',(0.,-1.,0.));
#372=DIRECTION('',(-1.,0.,0.));
#373=DIRECTION('',(0.,0.,1.));
#374=DIRECTION('',(-1.,0.,0.));
#375=DIRECTION('',(0.,0.,1.));
#376=DIRECTION('',(0.,-1.,0.));
#377=DIRECTION('',(0.,0.,1.));
#378=DIRECTION('',(1.,0.,0.));
#379=DIRECTION('',(0.,0.,1.));
#380=DIRECTION('',(1.,0.,0.));
#381=DIRECTION('',(0.,-1.,0.));
#382=DIRECTION('',(1.,0.,0.));
#383=DIRECTION('',(0.,0.,-1.));
#384=CARTESIAN_POINT('',(0.,0.,0.));
#385=CARTESIAN_POINT('',(0.,0.,0.));
#386=CARTESIAN_POINT('',(0.,0.,7.24999999999998));
#387=CARTESIAN_POINT('',(-2.5,1.6583123951777,7.24999999999998));
#388=CARTESIAN_POINT('',(2.5,1.6583123951777,7.24999999999998));
#389=CARTESIAN_POINT('',(-2.5,1.6583123951777,0.));
#390=CARTESIAN_POINT('',(-2.5,1.6583123951777,13.25));
#391=CARTESIAN_POINT('',(0.,0.,13.25));
#392=CARTESIAN_POINT('',(-2.5,-1.6583123951777,13.25));
#393=CARTESIAN_POINT('',(-2.5,-1.6583123951777,0.));
#394=CARTESIAN_POINT('',(-2.5,-1.6583123951777,7.24999999999998));
#395=CARTESIAN_POINT('',(0.,0.,7.24999999999998));
#396=CARTESIAN_POINT('',(2.5,-1.6583123951777,7.24999999999998));
#397=CARTESIAN_POINT('',(2.5,-1.6583123951777,0.));
#398=CARTESIAN_POINT('',(2.5,-1.6583123951777,13.25));
#399=CARTESIAN_POINT('',(0.,0.,13.25));
#400=CARTESIAN_POINT('',(2.5,1.6583123951777,13.25));
#401=CARTESIAN_POINT('',(2.5,1.6583123951777,0.));
#402=CARTESIAN_POINT('',(2.5,-1.6583123951777,0.));
#403=CARTESIAN_POINT('',(2.5,-1.6583123951777,692.25));
#404=CARTESIAN_POINT('',(2.5,-1.6583123951777,686.25));
#405=CARTESIAN_POINT('',(0.,0.,692.25));
#406=CARTESIAN_POINT('',(-2.5,-1.6583123951777,692.25));
#407=CARTESIAN_POINT('',(-2.5,-1.6583123951777,0.));
#408=CARTESIAN_POINT('',(-2.5,-1.6583123951777,686.25));
#409=CARTESIAN_POINT('',(0.,0.,686.25));
#410=CARTESIAN_POINT('',(-2.5,1.6583123951777,686.25));
#411=CARTESIAN_POINT('',(-2.5,1.6583123951777,0.));
#412=CARTESIAN_POINT('',(-2.5,1.6583123951777,692.25));
#413=CARTESIAN_POINT('',(0.,0.,692.25));
#414=CARTESIAN_POINT('',(2.5,1.6583123951777,692.25));
#415=CARTESIAN_POINT('',(2.5,1.6583123951777,0.));
#416=CARTESIAN_POINT('',(2.5,1.6583123951777,686.25));
#417=CARTESIAN_POINT('',(0.,0.,686.25));
#418=CARTESIAN_POINT('',(0.,0.,692.25));
#419=CARTESIAN_POINT('',(-2.5,0.,692.25));
#420=CARTESIAN_POINT('',(2.5,0.,692.25));
#421=CARTESIAN_POINT('',(0.,0.,692.25));
#422=CARTESIAN_POINT('',(-2.,0.,692.25));
#423=CARTESIAN_POINT('',(0.,3.,7.24999999999999));
#424=CARTESIAN_POINT('',(0.,0.,7.25));
#425=CARTESIAN_POINT('',(-2.,0.,7.25));
#426=CARTESIAN_POINT('',(-2.5,3.,7.24999999999999));
#427=CARTESIAN_POINT('',(2.5,3.,7.24999999999999));
#428=CARTESIAN_POINT('',(0.,0.,0.));
#429=CARTESIAN_POINT('',(0.,0.,0.4));
#430=CARTESIAN_POINT('',(-2.,0.,0.4));
#431=CARTESIAN_POINT('',(0.,0.,0.4));
#432=CARTESIAN_POINT('',(0.,0.,5.42101086242752E-17));
#433=CARTESIAN_POINT('',(-1.6,0.,5.42101086242752E-17));
#434=CARTESIAN_POINT('',(0.,1.6,2.71050543121376E-17));
#435=CARTESIAN_POINT('',(0.,0.,699.5));
#436=CARTESIAN_POINT('',(0.,0.,699.5));
#437=CARTESIAN_POINT('',(-1.6,0.,699.5));
#438=CARTESIAN_POINT('',(0.,0.,699.5));
#439=CARTESIAN_POINT('',(0.,0.,699.1));
#440=CARTESIAN_POINT('',(-2.,0.,699.1));
#441=CARTESIAN_POINT('',(0.,0.,692.25));
#442=CARTESIAN_POINT('',(2.5,3.,0.));
#443=CARTESIAN_POINT('',(2.5,3.,13.25));
#444=CARTESIAN_POINT('',(2.5,3.,13.25));
#445=CARTESIAN_POINT('',(-4.5,3.,13.25));
#446=CARTESIAN_POINT('',(-2.5,3.,13.25));
#447=CARTESIAN_POINT('',(-2.5,3.,13.25));
#448=CARTESIAN_POINT('',(-2.5,3.,699.5));
#449=CARTESIAN_POINT('',(-2.5,3.,686.25));
#450=CARTESIAN_POINT('',(-2.5,3.,686.25));
#451=CARTESIAN_POINT('',(4.5,3.,686.25));
#452=CARTESIAN_POINT('',(2.5,3.,686.25));
#453=CARTESIAN_POINT('',(2.5,3.,686.25));
#454=MECHANICAL_DESIGN_GEOMETRIC_PRESENTATION_REPRESENTATION('',(#261),
#455);
#455=(
GEOMETRIC_REPRESENTATION_CONTEXT(3)
GLOBAL_UNCERTAINTY_ASSIGNED_CONTEXT((#456))
GLOBAL_UNIT_ASSIGNED_CONTEXT((#459,#458,#457))
REPRESENTATION_CONTEXT('561133 VMPAL-ZAS-685','TOP_LEVEL_ASSEMBLY_PART')
);
#456=UNCERTAINTY_MEASURE_WITH_UNIT(LENGTH_MEASURE(0.005),#459,
'DISTANCE_ACCURACY_VALUE','Maximum Tolerance applied to model');
#457=(
NAMED_UNIT(*)
SI_UNIT($,.STERADIAN.)
SOLID_ANGLE_UNIT()
);
#458=(
NAMED_UNIT(*)
PLANE_ANGLE_UNIT()
SI_UNIT($,.RADIAN.)
);
#459=(
LENGTH_UNIT()
NAMED_UNIT(*)
SI_UNIT(.MILLI.,.METRE.)
);
#460=PRODUCT_DEFINITION_SHAPE('','',#461);
#461=PRODUCT_DEFINITION('','',#463,#462);
#462=PRODUCT_DEFINITION_CONTEXT('',#469,'design');
#463=PRODUCT_DEFINITION_FORMATION_WITH_SPECIFIED_SOURCE('','',#465,
 .NOT_KNOWN.);
#464=PRODUCT_RELATED_PRODUCT_CATEGORY('','',(#465));
#465=PRODUCT('561133 VMPAL-ZAS-685','561133 VMPAL-ZAS-685',
'561133 VMPAL-ZAS-685',(#467));
#466=PRODUCT_CATEGORY('','');
#467=PRODUCT_CONTEXT('',#469,'mechanical');
#468=APPLICATION_PROTOCOL_DEFINITION('international standard',
'automotive_design',2010,#469);
#469=APPLICATION_CONTEXT(
'core data for automotive mechanical design processes');
ENDSEC;
END-ISO-10303-21;
