ISO-10303-21;
HEADER;
/* Generated by software containing ST-Developer
 * from STEP Tools, Inc. (www.steptools.com) 
 */
/* OPTION: using custom renumber hook */

FILE_DESCRIPTION(
/* description */ ('STEP AP214'),
/* implementation_level */ '2;1');

FILE_NAME(
/* name */ '547052_CPV14-VI-P_1_8-150',
/* time_stamp */ '2024-08-07T15:10:17+02:00',
/* author */ ('License CC BY-ND 4.0'),
/* organization */ ('CADENAS'),
/* preprocessor_version */ 'ST-DEVELOPER v19.3',
/* originating_system */ 'PARTsolutions',
/* authorisation */ '  ');

FILE_SCHEMA (('AUTOMOTIVE_DESIGN {1 0 10303 214 3 1 1}'));
ENDSEC;

DATA;
#10=PROPERTY_DEFINITION_REPRESENTATION(#14,#12);
#11=PROPERTY_DEFINITION_REPRESENTATION(#15,#13);
#12=REPRESENTATION('',(#16),#477);
#13=REPRESENTATION('',(#17),#477);
#14=PROPERTY_DEFINITION('pmi validation property','',#482);
#15=PROPERTY_DEFINITION('pmi validation property','',#482);
#16=VALUE_REPRESENTATION_ITEM('number of annotations',COUNT_MEASURE(0.));
#17=VALUE_REPRESENTATION_ITEM('number of views',COUNT_MEASURE(0.));
#18=SHAPE_REPRESENTATION_RELATIONSHIP('','',#273,#19);
#19=ADVANCED_BREP_SHAPE_REPRESENTATION('',(#271),#477);
#20=TOROIDAL_SURFACE('',#286,4.85,0.399999999999999);
#21=TOROIDAL_SURFACE('',#288,4.84,0.880000000000001);
#22=TOROIDAL_SURFACE('',#296,4.75673983614581,0.299999999999997);
#23=TOROIDAL_SURFACE('',#300,4.45,0.300000000000002);
#24=TOROIDAL_SURFACE('',#304,4.45000000000002,0.300000000000016);
#25=TOROIDAL_SURFACE('',#308,4.37355599809221,0.29999999999992);
#26=TOROIDAL_SURFACE('',#314,4.52,0.300000000000003);
#27=CYLINDRICAL_SURFACE('',#284,4.45);
#28=CYLINDRICAL_SURFACE('',#290,5.72);
#29=CYLINDRICAL_SURFACE('',#302,4.15);
#30=CYLINDRICAL_SURFACE('',#312,4.82);
#31=PLANE('',#280);
#32=PLANE('',#298);
#33=PLANE('',#316);
#34=ORIENTED_EDGE('',*,*,#78,.T.);
#35=ORIENTED_EDGE('',*,*,#79,.F.);
#36=ORIENTED_EDGE('',*,*,#80,.T.);
#37=ORIENTED_EDGE('',*,*,#78,.F.);
#38=ORIENTED_EDGE('',*,*,#81,.T.);
#39=ORIENTED_EDGE('',*,*,#80,.F.);
#40=ORIENTED_EDGE('',*,*,#82,.T.);
#41=ORIENTED_EDGE('',*,*,#81,.F.);
#42=ORIENTED_EDGE('',*,*,#83,.T.);
#43=ORIENTED_EDGE('',*,*,#82,.F.);
#44=ORIENTED_EDGE('',*,*,#83,.F.);
#45=ORIENTED_EDGE('',*,*,#84,.T.);
#46=ORIENTED_EDGE('',*,*,#85,.T.);
#47=ORIENTED_EDGE('',*,*,#84,.F.);
#48=ORIENTED_EDGE('',*,*,#86,.T.);
#49=ORIENTED_EDGE('',*,*,#85,.F.);
#50=ORIENTED_EDGE('',*,*,#87,.T.);
#51=ORIENTED_EDGE('',*,*,#86,.F.);
#52=ORIENTED_EDGE('',*,*,#88,.T.);
#53=ORIENTED_EDGE('',*,*,#87,.F.);
#54=ORIENTED_EDGE('',*,*,#89,.T.);
#55=ORIENTED_EDGE('',*,*,#88,.F.);
#56=ORIENTED_EDGE('',*,*,#90,.T.);
#57=ORIENTED_EDGE('',*,*,#89,.F.);
#58=ORIENTED_EDGE('',*,*,#91,.T.);
#59=ORIENTED_EDGE('',*,*,#90,.F.);
#60=ORIENTED_EDGE('',*,*,#92,.T.);
#61=ORIENTED_EDGE('',*,*,#91,.F.);
#62=ORIENTED_EDGE('',*,*,#93,.T.);
#63=ORIENTED_EDGE('',*,*,#92,.F.);
#64=ORIENTED_EDGE('',*,*,#94,.T.);
#65=ORIENTED_EDGE('',*,*,#93,.F.);
#66=ORIENTED_EDGE('',*,*,#94,.F.);
#67=ORIENTED_EDGE('',*,*,#95,.T.);
#68=ORIENTED_EDGE('',*,*,#96,.T.);
#69=ORIENTED_EDGE('',*,*,#95,.F.);
#70=ORIENTED_EDGE('',*,*,#97,.T.);
#71=ORIENTED_EDGE('',*,*,#96,.F.);
#72=ORIENTED_EDGE('',*,*,#97,.F.);
#73=ORIENTED_EDGE('',*,*,#98,.T.);
#74=ORIENTED_EDGE('',*,*,#99,.T.);
#75=ORIENTED_EDGE('',*,*,#98,.F.);
#76=ORIENTED_EDGE('',*,*,#79,.T.);
#77=ORIENTED_EDGE('',*,*,#99,.F.);
#78=EDGE_CURVE('',#100,#100,#122,.T.);
#79=EDGE_CURVE('',#101,#101,#123,.T.);
#80=EDGE_CURVE('',#102,#102,#124,.T.);
#81=EDGE_CURVE('',#103,#103,#125,.T.);
#82=EDGE_CURVE('',#104,#104,#126,.T.);
#83=EDGE_CURVE('',#105,#105,#127,.T.);
#84=EDGE_CURVE('',#106,#106,#128,.T.);
#85=EDGE_CURVE('',#107,#107,#129,.T.);
#86=EDGE_CURVE('',#108,#108,#130,.T.);
#87=EDGE_CURVE('',#109,#109,#131,.T.);
#88=EDGE_CURVE('',#110,#110,#132,.T.);
#89=EDGE_CURVE('',#111,#111,#133,.T.);
#90=EDGE_CURVE('',#112,#112,#134,.T.);
#91=EDGE_CURVE('',#113,#113,#135,.T.);
#92=EDGE_CURVE('',#114,#114,#136,.T.);
#93=EDGE_CURVE('',#115,#115,#137,.T.);
#94=EDGE_CURVE('',#116,#116,#138,.T.);
#95=EDGE_CURVE('',#117,#117,#139,.T.);
#96=EDGE_CURVE('',#118,#118,#140,.T.);
#97=EDGE_CURVE('',#119,#119,#141,.T.);
#98=EDGE_CURVE('',#120,#120,#142,.T.);
#99=EDGE_CURVE('',#121,#121,#143,.T.);
#100=VERTEX_POINT('',#412);
#101=VERTEX_POINT('',#414);
#102=VERTEX_POINT('',#417);
#103=VERTEX_POINT('',#420);
#104=VERTEX_POINT('',#423);
#105=VERTEX_POINT('',#426);
#106=VERTEX_POINT('',#429);
#107=VERTEX_POINT('',#432);
#108=VERTEX_POINT('',#435);
#109=VERTEX_POINT('',#438);
#110=VERTEX_POINT('',#441);
#111=VERTEX_POINT('',#444);
#112=VERTEX_POINT('',#447);
#113=VERTEX_POINT('',#450);
#114=VERTEX_POINT('',#453);
#115=VERTEX_POINT('',#456);
#116=VERTEX_POINT('',#459);
#117=VERTEX_POINT('',#462);
#118=VERTEX_POINT('',#465);
#119=VERTEX_POINT('',#468);
#120=VERTEX_POINT('',#471);
#121=VERTEX_POINT('',#474);
#122=CIRCLE('',#276,2.65);
#123=CIRCLE('',#277,3.25);
#124=CIRCLE('',#279,3.30514642167916);
#125=CIRCLE('',#281,4.07971334051222);
#126=CIRCLE('',#283,4.45);
#127=CIRCLE('',#285,4.45);
#128=CIRCLE('',#287,4.846875);
#129=CIRCLE('',#289,5.72);
#130=CIRCLE('',#291,5.72);
#131=CIRCLE('',#293,5.46079933835856);
#132=CIRCLE('',#295,5.0286321722568);
#133=CIRCLE('',#297,4.75673983614581);
#134=CIRCLE('',#299,4.45);
#135=CIRCLE('',#301,4.15);
#136=CIRCLE('',#303,4.15);
#137=CIRCLE('',#305,4.178107663889);
#138=CIRCLE('',#307,4.64544833420313);
#139=CIRCLE('',#309,4.6689983239958);
#140=CIRCLE('',#311,4.82);
#141=CIRCLE('',#313,4.82);
#142=CIRCLE('',#315,4.52);
#143=CIRCLE('',#317,4.2001027990095);
#144=EDGE_LOOP('',(#34));
#145=EDGE_LOOP('',(#35));
#146=EDGE_LOOP('',(#36));
#147=EDGE_LOOP('',(#37));
#148=EDGE_LOOP('',(#38));
#149=EDGE_LOOP('',(#39));
#150=EDGE_LOOP('',(#40));
#151=EDGE_LOOP('',(#41));
#152=EDGE_LOOP('',(#42));
#153=EDGE_LOOP('',(#43));
#154=EDGE_LOOP('',(#44));
#155=EDGE_LOOP('',(#45));
#156=EDGE_LOOP('',(#46));
#157=EDGE_LOOP('',(#47));
#158=EDGE_LOOP('',(#48));
#159=EDGE_LOOP('',(#49));
#160=EDGE_LOOP('',(#50));
#161=EDGE_LOOP('',(#51));
#162=EDGE_LOOP('',(#52));
#163=EDGE_LOOP('',(#53));
#164=EDGE_LOOP('',(#54));
#165=EDGE_LOOP('',(#55));
#166=EDGE_LOOP('',(#56));
#167=EDGE_LOOP('',(#57));
#168=EDGE_LOOP('',(#58));
#169=EDGE_LOOP('',(#59));
#170=EDGE_LOOP('',(#60));
#171=EDGE_LOOP('',(#61));
#172=EDGE_LOOP('',(#62));
#173=EDGE_LOOP('',(#63));
#174=EDGE_LOOP('',(#64));
#175=EDGE_LOOP('',(#65));
#176=EDGE_LOOP('',(#66));
#177=EDGE_LOOP('',(#67));
#178=EDGE_LOOP('',(#68));
#179=EDGE_LOOP('',(#69));
#180=EDGE_LOOP('',(#70));
#181=EDGE_LOOP('',(#71));
#182=EDGE_LOOP('',(#72));
#183=EDGE_LOOP('',(#73));
#184=EDGE_LOOP('',(#74));
#185=EDGE_LOOP('',(#75));
#186=EDGE_LOOP('',(#76));
#187=EDGE_LOOP('',(#77));
#188=FACE_BOUND('',#144,.T.);
#189=FACE_BOUND('',#145,.T.);
#190=FACE_BOUND('',#146,.T.);
#191=FACE_BOUND('',#147,.T.);
#192=FACE_BOUND('',#148,.T.);
#193=FACE_BOUND('',#149,.T.);
#194=FACE_BOUND('',#150,.T.);
#195=FACE_BOUND('',#151,.T.);
#196=FACE_BOUND('',#152,.T.);
#197=FACE_BOUND('',#153,.T.);
#198=FACE_BOUND('',#154,.T.);
#199=FACE_BOUND('',#155,.T.);
#200=FACE_BOUND('',#156,.T.);
#201=FACE_BOUND('',#157,.T.);
#202=FACE_BOUND('',#158,.T.);
#203=FACE_BOUND('',#159,.T.);
#204=FACE_BOUND('',#160,.T.);
#205=FACE_BOUND('',#161,.T.);
#206=FACE_BOUND('',#162,.T.);
#207=FACE_BOUND('',#163,.T.);
#208=FACE_BOUND('',#164,.T.);
#209=FACE_BOUND('',#165,.T.);
#210=FACE_BOUND('',#166,.T.);
#211=FACE_BOUND('',#167,.T.);
#212=FACE_BOUND('',#168,.T.);
#213=FACE_BOUND('',#169,.T.);
#214=FACE_BOUND('',#170,.T.);
#215=FACE_BOUND('',#171,.T.);
#216=FACE_BOUND('',#172,.T.);
#217=FACE_BOUND('',#173,.T.);
#218=FACE_BOUND('',#174,.T.);
#219=FACE_BOUND('',#175,.T.);
#220=FACE_BOUND('',#176,.T.);
#221=FACE_BOUND('',#177,.T.);
#222=FACE_BOUND('',#178,.T.);
#223=FACE_BOUND('',#179,.T.);
#224=FACE_BOUND('',#180,.T.);
#225=FACE_BOUND('',#181,.T.);
#226=FACE_BOUND('',#182,.T.);
#227=FACE_BOUND('',#183,.T.);
#228=FACE_BOUND('',#184,.T.);
#229=FACE_BOUND('',#185,.T.);
#230=FACE_BOUND('',#186,.T.);
#231=FACE_BOUND('',#187,.T.);
#232=CONICAL_SURFACE('',#275,3.25,0.174532925199433);
#233=CONICAL_SURFACE('',#278,2.65,0.349065850398865);
#234=CONICAL_SURFACE('',#282,4.07971334051222,0.174532925199433);
#235=CONICAL_SURFACE('',#292,5.72,0.174532925199433);
#236=CONICAL_SURFACE('',#294,5.46079933835856,0.436332312998582);
#237=CONICAL_SURFACE('',#306,4.178107663889,0.436332312998583);
#238=CONICAL_SURFACE('',#310,4.6689983239958,0.174532925199433);
#239=CONICAL_SURFACE('',#318,4.2001027990095,0.872664625997165);
#240=ADVANCED_FACE('',(#188,#189),#232,.F.);
#241=ADVANCED_FACE('',(#190,#191),#233,.F.);
#242=ADVANCED_FACE('',(#192,#193),#31,.T.);
#243=ADVANCED_FACE('',(#194,#195),#234,.T.);
#244=ADVANCED_FACE('',(#196,#197),#27,.T.);
#245=ADVANCED_FACE('',(#198,#199),#20,.F.);
#246=ADVANCED_FACE('',(#200,#201),#21,.T.);
#247=ADVANCED_FACE('',(#202,#203),#28,.T.);
#248=ADVANCED_FACE('',(#204,#205),#235,.T.);
#249=ADVANCED_FACE('',(#206,#207),#236,.T.);
#250=ADVANCED_FACE('',(#208,#209),#22,.T.);
#251=ADVANCED_FACE('',(#210,#211),#32,.T.);
#252=ADVANCED_FACE('',(#212,#213),#23,.T.);
#253=ADVANCED_FACE('',(#214,#215),#29,.F.);
#254=ADVANCED_FACE('',(#216,#217),#24,.T.);
#255=ADVANCED_FACE('',(#218,#219),#237,.F.);
#256=ADVANCED_FACE('',(#220,#221),#25,.F.);
#257=ADVANCED_FACE('',(#222,#223),#238,.F.);
#258=ADVANCED_FACE('',(#224,#225),#30,.F.);
#259=ADVANCED_FACE('',(#226,#227),#26,.F.);
#260=ADVANCED_FACE('',(#228,#229),#33,.T.);
#261=ADVANCED_FACE('',(#230,#231),#239,.F.);
#262=CLOSED_SHELL('',(#240,#241,#242,#243,#244,#245,#246,#247,#248,#249,
#250,#251,#252,#253,#254,#255,#256,#257,#258,#259,#260,#261));
#263=STYLED_ITEM('',(#264),#271);
#264=PRESENTATION_STYLE_ASSIGNMENT((#265));
#265=SURFACE_STYLE_USAGE(.BOTH.,#266);
#266=SURFACE_SIDE_STYLE('',(#267));
#267=SURFACE_STYLE_FILL_AREA(#268);
#268=FILL_AREA_STYLE('',(#269));
#269=FILL_AREA_STYLE_COLOUR('',#270);
#270=COLOUR_RGB('',0.689999997615814,0.689999997615814,0.689999997615814);
#271=MANIFOLD_SOLID_BREP('547052 CPV14-VI-P.1/8-150',#262);
#272=SHAPE_DEFINITION_REPRESENTATION(#482,#273);
#273=SHAPE_REPRESENTATION('547052 CPV14-VI-P.1/8-150',(#274),#477);
#274=AXIS2_PLACEMENT_3D('',#409,#319,#320);
#275=AXIS2_PLACEMENT_3D('',#410,#321,#322);
#276=AXIS2_PLACEMENT_3D('',#411,#323,#324);
#277=AXIS2_PLACEMENT_3D('',#413,#325,#326);
#278=AXIS2_PLACEMENT_3D('',#415,#327,#328);
#279=AXIS2_PLACEMENT_3D('',#416,#329,#330);
#280=AXIS2_PLACEMENT_3D('',#418,#331,#332);
#281=AXIS2_PLACEMENT_3D('',#419,#333,#334);
#282=AXIS2_PLACEMENT_3D('',#421,#335,#336);
#283=AXIS2_PLACEMENT_3D('',#422,#337,#338);
#284=AXIS2_PLACEMENT_3D('',#424,#339,#340);
#285=AXIS2_PLACEMENT_3D('',#425,#341,#342);
#286=AXIS2_PLACEMENT_3D('',#427,#343,#344);
#287=AXIS2_PLACEMENT_3D('',#428,#345,#346);
#288=AXIS2_PLACEMENT_3D('',#430,#347,#348);
#289=AXIS2_PLACEMENT_3D('',#431,#349,#350);
#290=AXIS2_PLACEMENT_3D('',#433,#351,#352);
#291=AXIS2_PLACEMENT_3D('',#434,#353,#354);
#292=AXIS2_PLACEMENT_3D('',#436,#355,#356);
#293=AXIS2_PLACEMENT_3D('',#437,#357,#358);
#294=AXIS2_PLACEMENT_3D('',#439,#359,#360);
#295=AXIS2_PLACEMENT_3D('',#440,#361,#362);
#296=AXIS2_PLACEMENT_3D('',#442,#363,#364);
#297=AXIS2_PLACEMENT_3D('',#443,#365,#366);
#298=AXIS2_PLACEMENT_3D('',#445,#367,#368);
#299=AXIS2_PLACEMENT_3D('',#446,#369,#370);
#300=AXIS2_PLACEMENT_3D('',#448,#371,#372);
#301=AXIS2_PLACEMENT_3D('',#449,#373,#374);
#302=AXIS2_PLACEMENT_3D('',#451,#375,#376);
#303=AXIS2_PLACEMENT_3D('',#452,#377,#378);
#304=AXIS2_PLACEMENT_3D('',#454,#379,#380);
#305=AXIS2_PLACEMENT_3D('',#455,#381,#382);
#306=AXIS2_PLACEMENT_3D('',#457,#383,#384);
#307=AXIS2_PLACEMENT_3D('',#458,#385,#386);
#308=AXIS2_PLACEMENT_3D('',#460,#387,#388);
#309=AXIS2_PLACEMENT_3D('',#461,#389,#390);
#310=AXIS2_PLACEMENT_3D('',#463,#391,#392);
#311=AXIS2_PLACEMENT_3D('',#464,#393,#394);
#312=AXIS2_PLACEMENT_3D('',#466,#395,#396);
#313=AXIS2_PLACEMENT_3D('',#467,#397,#398);
#314=AXIS2_PLACEMENT_3D('',#469,#399,#400);
#315=AXIS2_PLACEMENT_3D('',#470,#401,#402);
#316=AXIS2_PLACEMENT_3D('',#472,#403,#404);
#317=AXIS2_PLACEMENT_3D('',#473,#405,#406);
#318=AXIS2_PLACEMENT_3D('',#475,#407,#408);
#319=DIRECTION('',(0.,0.,1.));
#320=DIRECTION('',(1.,0.,0.));
#321=DIRECTION('',(0.,1.,0.));
#322=DIRECTION('',(0.,0.,1.));
#323=DIRECTION('',(0.,-1.,0.));
#324=DIRECTION('',(0.,0.,-1.));
#325=DIRECTION('',(0.,-1.,0.));
#326=DIRECTION('',(0.,0.,-1.));
#327=DIRECTION('',(0.,-1.,0.));
#328=DIRECTION('',(0.,0.,-1.));
#329=DIRECTION('',(0.,-1.,0.));
#330=DIRECTION('',(0.,0.,-1.));
#331=DIRECTION('',(0.,-1.,0.));
#332=DIRECTION('',(0.,0.,-1.));
#333=DIRECTION('',(0.,-1.,0.));
#334=DIRECTION('',(0.,0.,-1.));
#335=DIRECTION('',(0.,1.,0.));
#336=DIRECTION('',(0.,0.,1.));
#337=DIRECTION('',(0.,-1.,0.));
#338=DIRECTION('',(0.,0.,-1.));
#339=DIRECTION('',(0.,-1.,0.));
#340=DIRECTION('',(0.,0.,-1.));
#341=DIRECTION('',(0.,-1.,0.));
#342=DIRECTION('',(0.,0.,-1.));
#343=DIRECTION('',(0.,-1.,0.));
#344=DIRECTION('',(0.,0.,-1.));
#345=DIRECTION('',(0.,-1.,0.));
#346=DIRECTION('',(0.,0.,-1.));
#347=DIRECTION('',(0.,-1.,0.));
#348=DIRECTION('',(0.,0.,-1.));
#349=DIRECTION('',(0.,-1.,0.));
#350=DIRECTION('',(0.,0.,-1.));
#351=DIRECTION('',(0.,-1.,0.));
#352=DIRECTION('',(0.,0.,-1.));
#353=DIRECTION('',(0.,-1.,0.));
#354=DIRECTION('',(0.,0.,-1.));
#355=DIRECTION('',(0.,-1.,0.));
#356=DIRECTION('',(0.,0.,-1.));
#357=DIRECTION('',(0.,-1.,0.));
#358=DIRECTION('',(0.,0.,-1.));
#359=DIRECTION('',(0.,-1.,0.));
#360=DIRECTION('',(0.,0.,-1.));
#361=DIRECTION('',(0.,-1.,0.));
#362=DIRECTION('',(0.,0.,-1.));
#363=DIRECTION('',(0.,-1.,0.));
#364=DIRECTION('',(0.,0.,-1.));
#365=DIRECTION('',(0.,-1.,0.));
#366=DIRECTION('',(0.,0.,-1.));
#367=DIRECTION('',(0.,1.,0.));
#368=DIRECTION('',(0.,0.,1.));
#369=DIRECTION('',(0.,-1.,0.));
#370=DIRECTION('',(0.,0.,-1.));
#371=DIRECTION('',(0.,-1.,0.));
#372=DIRECTION('',(0.,0.,-1.));
#373=DIRECTION('',(0.,-1.,0.));
#374=DIRECTION('',(0.,0.,-1.));
#375=DIRECTION('',(0.,-1.,0.));
#376=DIRECTION('',(0.,0.,-1.));
#377=DIRECTION('',(0.,-1.,0.));
#378=DIRECTION('',(0.,0.,-1.));
#379=DIRECTION('',(0.,-1.,0.));
#380=DIRECTION('',(0.,0.,-1.));
#381=DIRECTION('',(0.,-1.,0.));
#382=DIRECTION('',(0.,0.,-1.));
#383=DIRECTION('',(0.,-1.,0.));
#384=DIRECTION('',(0.,0.,-1.));
#385=DIRECTION('',(0.,-1.,0.));
#386=DIRECTION('',(0.,0.,-1.));
#387=DIRECTION('',(0.,-1.,0.));
#388=DIRECTION('',(0.,0.,-1.));
#389=DIRECTION('',(0.,-1.,0.));
#390=DIRECTION('',(0.,0.,-1.));
#391=DIRECTION('',(0.,-1.,0.));
#392=DIRECTION('',(0.,0.,-1.));
#393=DIRECTION('',(0.,-1.,0.));
#394=DIRECTION('',(0.,0.,-1.));
#395=DIRECTION('',(0.,-1.,0.));
#396=DIRECTION('',(0.,0.,-1.));
#397=DIRECTION('',(0.,-1.,0.));
#398=DIRECTION('',(0.,0.,-1.));
#399=DIRECTION('',(0.,-1.,0.));
#400=DIRECTION('',(0.,0.,-1.));
#401=DIRECTION('',(0.,-1.,0.));
#402=DIRECTION('',(0.,0.,-1.));
#403=DIRECTION('',(0.,1.,0.));
#404=DIRECTION('',(0.,0.,1.));
#405=DIRECTION('',(0.,-1.,0.));
#406=DIRECTION('',(0.,0.,-1.));
#407=DIRECTION('',(0.,1.,0.));
#408=DIRECTION('',(0.,0.,1.));
#409=CARTESIAN_POINT('',(0.,0.,0.));
#410=CARTESIAN_POINT('',(0.,5.20276909177063,0.));
#411=CARTESIAN_POINT('',(0.,1.8,0.));
#412=CARTESIAN_POINT('',(0.,1.8,-2.65));
#413=CARTESIAN_POINT('',(0.,5.20276909177063,0.));
#414=CARTESIAN_POINT('',(0.,5.20276909177063,-3.25));
#415=CARTESIAN_POINT('',(0.,1.8,0.));
#416=CARTESIAN_POINT('',(0.,-2.16840434497101E-16,0.));
#417=CARTESIAN_POINT('',(0.,-2.16840434497101E-16,-3.30514642167916));
#418=CARTESIAN_POINT('',(3.30514642167916,-1.0842021724855E-16,0.));
#419=CARTESIAN_POINT('',(0.,0.,0.));
#420=CARTESIAN_POINT('',(0.,0.,-4.07971334051222));
#421=CARTESIAN_POINT('',(0.,0.,0.));
#422=CARTESIAN_POINT('',(0.,2.10000000000001,0.));
#423=CARTESIAN_POINT('',(0.,2.10000000000001,-4.45));
#424=CARTESIAN_POINT('',(0.,0.,0.));
#425=CARTESIAN_POINT('',(0.,4.75003906309607,0.));
#426=CARTESIAN_POINT('',(0.,4.75003906309607,-4.45));
#427=CARTESIAN_POINT('',(0.,4.75003906309607,0.));
#428=CARTESIAN_POINT('',(0.,5.15002685587855,0.));
#429=CARTESIAN_POINT('',(0.,5.15002685587855,-4.846875));
#430=CARTESIAN_POINT('',(0.,6.03,0.));
#431=CARTESIAN_POINT('',(0.,6.03,0.));
#432=CARTESIAN_POINT('',(0.,6.03,-5.72));
#433=CARTESIAN_POINT('',(0.,0.,0.));
#434=CARTESIAN_POINT('',(0.,6.43,0.));
#435=CARTESIAN_POINT('',(0.,6.43,-5.72));
#436=CARTESIAN_POINT('',(0.,6.43,0.));
#437=CARTESIAN_POINT('',(0.,7.9,0.));
#438=CARTESIAN_POINT('',(0.,7.9,-5.46079933835856));
#439=CARTESIAN_POINT('',(0.,7.9,0.));
#440=CARTESIAN_POINT('',(0.,8.82678547852221,0.));
#441=CARTESIAN_POINT('',(0.,8.82678547852221,-5.0286321722568));
#442=CARTESIAN_POINT('',(0.,8.7,0.));
#443=CARTESIAN_POINT('',(0.,9.,0.));
#444=CARTESIAN_POINT('',(0.,9.,-4.75673983614581));
#445=CARTESIAN_POINT('',(4.75673983614581,9.,0.));
#446=CARTESIAN_POINT('',(0.,9.,0.));
#447=CARTESIAN_POINT('',(0.,9.,-4.45));
#448=CARTESIAN_POINT('',(0.,8.7,0.));
#449=CARTESIAN_POINT('',(0.,8.7,0.));
#450=CARTESIAN_POINT('',(0.,8.7,-4.15));
#451=CARTESIAN_POINT('',(0.,0.,0.));
#452=CARTESIAN_POINT('',(0.,8.41132506814966,0.));
#453=CARTESIAN_POINT('',(0.,8.41132506814966,-4.15));
#454=CARTESIAN_POINT('',(0.,8.41132506814966,0.));
#455=CARTESIAN_POINT('',(0.,8.28453958962745,0.));
#456=CARTESIAN_POINT('',(0.,8.28453958962745,-4.178107663889));
#457=CARTESIAN_POINT('',(0.,8.28453958962745,0.));
#458=CARTESIAN_POINT('',(0.,7.28232428790323,0.));
#459=CARTESIAN_POINT('',(0.,7.28232428790323,-4.64544833420313));
#460=CARTESIAN_POINT('',(0.,7.15553880938104,0.));
#461=CARTESIAN_POINT('',(0.,7.20763326268109,0.));
#462=CARTESIAN_POINT('',(0.,7.20763326268109,-4.6689983239958));
#463=CARTESIAN_POINT('',(0.,7.20763326268109,0.));
#464=CARTESIAN_POINT('',(0.,6.35126020282667,0.));
#465=CARTESIAN_POINT('',(0.,6.35126020282667,-4.82));
#466=CARTESIAN_POINT('',(0.,0.,0.));
#467=CARTESIAN_POINT('',(0.,6.3,0.));
#468=CARTESIAN_POINT('',(0.,6.3,-4.82));
#469=CARTESIAN_POINT('',(0.,6.3,0.));
#470=CARTESIAN_POINT('',(0.,6.,0.));
#471=CARTESIAN_POINT('',(0.,6.,-4.52));
#472=CARTESIAN_POINT('',(4.52,6.,0.));
#473=CARTESIAN_POINT('',(0.,6.,0.));
#474=CARTESIAN_POINT('',(0.,6.,-4.2001027990095));
#475=CARTESIAN_POINT('',(0.,6.,0.));
#476=MECHANICAL_DESIGN_GEOMETRIC_PRESENTATION_REPRESENTATION('',(#263),
#477);
#477=(
GEOMETRIC_REPRESENTATION_CONTEXT(3)
GLOBAL_UNCERTAINTY_ASSIGNED_CONTEXT((#478))
GLOBAL_UNIT_ASSIGNED_CONTEXT((#481,#480,#479))
REPRESENTATION_CONTEXT('547052 CPV14-VI-P.1/8-150',
'TOP_LEVEL_ASSEMBLY_PART')
);
#478=UNCERTAINTY_MEASURE_WITH_UNIT(LENGTH_MEASURE(0.005),#481,
'DISTANCE_ACCURACY_VALUE','Maximum Tolerance applied to model');
#479=(
NAMED_UNIT(*)
SI_UNIT($,.STERADIAN.)
SOLID_ANGLE_UNIT()
);
#480=(
NAMED_UNIT(*)
PLANE_ANGLE_UNIT()
SI_UNIT($,.RADIAN.)
);
#481=(
LENGTH_UNIT()
NAMED_UNIT(*)
SI_UNIT(.MILLI.,.METRE.)
);
#482=PRODUCT_DEFINITION_SHAPE('','',#483);
#483=PRODUCT_DEFINITION('','',#485,#484);
#484=PRODUCT_DEFINITION_CONTEXT('',#491,'design');
#485=PRODUCT_DEFINITION_FORMATION_WITH_SPECIFIED_SOURCE('','',#487,
 .NOT_KNOWN.);
#486=PRODUCT_RELATED_PRODUCT_CATEGORY('','',(#487));
#487=PRODUCT('547052 CPV14-VI-P.1/8-150','547052 CPV14-VI-P.1/8-150',
'547052 CPV14-VI-P.1/8-150',(#489));
#488=PRODUCT_CATEGORY('','');
#489=PRODUCT_CONTEXT('',#491,'mechanical');
#490=APPLICATION_PROTOCOL_DEFINITION('international standard',
'automotive_design',2010,#491);
#491=APPLICATION_CONTEXT(
'core data for automotive mechanical design processes');
ENDSEC;
END-ISO-10303-21;
