ISO-10303-21;
HEADER;
/* Generated by software containing ST-Developer
 * from STEP Tools, Inc. (www.steptools.com) 
 */
/* OPTION: using custom renumber hook */

FILE_DESCRIPTION(
/* description */ ('STEP AP214'),
/* implementation_level */ '2;1');

FILE_NAME(
/* name */ '541482_CPX-8DA',
/* time_stamp */ '2024-08-07T18:19:41+02:00',
/* author */ ('License CC BY-ND 4.0'),
/* organization */ ('CADENAS'),
/* preprocessor_version */ 'ST-DEVELOPER v19.3',
/* originating_system */ 'PARTsolutions',
/* authorisation */ '  ');

FILE_SCHEMA (('AUTOMOTIVE_DESIGN {1 0 10303 214 3 1 1}'));
ENDSEC;

DATA;
#10=PROPERTY_DEFINITION_REPRESENTATION(#14,#12);
#11=PROPERTY_DEFINITION_REPRESENTATION(#15,#13);
#12=REPRESENTATION('',(#16),#671);
#13=REPRESENTATION('',(#17),#671);
#14=PROPERTY_DEFINITION('pmi validation property','',#676);
#15=PROPERTY_DEFINITION('pmi validation property','',#676);
#16=VALUE_REPRESENTATION_ITEM('number of annotations',COUNT_MEASURE(0.));
#17=VALUE_REPRESENTATION_ITEM('number of views',COUNT_MEASURE(0.));
#18=SHAPE_REPRESENTATION_RELATIONSHIP('','',#393,#19);
#19=ADVANCED_BREP_SHAPE_REPRESENTATION('',(#391),#671);
#20=CYLINDRICAL_SURFACE('',#402,2.49);
#21=CYLINDRICAL_SURFACE('',#406,2.49);
#22=CYLINDRICAL_SURFACE('',#409,5.44999999999998);
#23=CYLINDRICAL_SURFACE('',#412,2.49);
#24=CYLINDRICAL_SURFACE('',#416,1.87999999999999);
#25=CYLINDRICAL_SURFACE('',#418,6.25);
#26=CYLINDRICAL_SURFACE('',#420,1.88000000000001);
#27=CYLINDRICAL_SURFACE('',#423,1.88000000000001);
#28=CYLINDRICAL_SURFACE('',#425,6.25);
#29=CYLINDRICAL_SURFACE('',#427,1.88);
#30=CYLINDRICAL_SURFACE('',#430,2.48999999999998);
#31=CYLINDRICAL_SURFACE('',#433,5.45);
#32=CIRCLE('',#396,1.87999999999999);
#33=CIRCLE('',#397,6.25);
#34=CIRCLE('',#398,1.88000000000001);
#35=CIRCLE('',#399,1.88000000000001);
#36=CIRCLE('',#400,6.25);
#37=CIRCLE('',#401,1.88);
#38=CIRCLE('',#403,2.49);
#39=CIRCLE('',#404,2.49);
#40=CIRCLE('',#407,2.49);
#41=CIRCLE('',#408,2.49);
#42=CIRCLE('',#410,5.44999999999998);
#43=CIRCLE('',#411,5.44999999999998);
#44=CIRCLE('',#413,2.49);
#45=CIRCLE('',#414,2.49);
#46=CIRCLE('',#417,1.87999999999999);
#47=CIRCLE('',#419,6.25);
#48=CIRCLE('',#421,1.88000000000001);
#49=CIRCLE('',#424,1.88000000000001);
#50=CIRCLE('',#426,6.25);
#51=CIRCLE('',#428,1.88);
#52=CIRCLE('',#431,2.48999999999998);
#53=CIRCLE('',#432,2.48999999999998);
#54=CIRCLE('',#434,5.45);
#55=CIRCLE('',#435,5.45);
#56=ORIENTED_EDGE('',*,*,#164,.T.);
#57=ORIENTED_EDGE('',*,*,#165,.T.);
#58=ORIENTED_EDGE('',*,*,#166,.T.);
#59=ORIENTED_EDGE('',*,*,#167,.T.);
#60=ORIENTED_EDGE('',*,*,#168,.F.);
#61=ORIENTED_EDGE('',*,*,#169,.T.);
#62=ORIENTED_EDGE('',*,*,#170,.T.);
#63=ORIENTED_EDGE('',*,*,#171,.T.);
#64=ORIENTED_EDGE('',*,*,#172,.F.);
#65=ORIENTED_EDGE('',*,*,#173,.T.);
#66=ORIENTED_EDGE('',*,*,#174,.T.);
#67=ORIENTED_EDGE('',*,*,#175,.T.);
#68=ORIENTED_EDGE('',*,*,#176,.F.);
#69=ORIENTED_EDGE('',*,*,#177,.F.);
#70=ORIENTED_EDGE('',*,*,#176,.T.);
#71=ORIENTED_EDGE('',*,*,#178,.T.);
#72=ORIENTED_EDGE('',*,*,#179,.F.);
#73=ORIENTED_EDGE('',*,*,#180,.F.);
#74=ORIENTED_EDGE('',*,*,#179,.T.);
#75=ORIENTED_EDGE('',*,*,#181,.T.);
#76=ORIENTED_EDGE('',*,*,#182,.F.);
#77=ORIENTED_EDGE('',*,*,#183,.F.);
#78=ORIENTED_EDGE('',*,*,#182,.T.);
#79=ORIENTED_EDGE('',*,*,#184,.F.);
#80=ORIENTED_EDGE('',*,*,#185,.F.);
#81=ORIENTED_EDGE('',*,*,#186,.T.);
#82=ORIENTED_EDGE('',*,*,#185,.T.);
#83=ORIENTED_EDGE('',*,*,#187,.T.);
#84=ORIENTED_EDGE('',*,*,#188,.F.);
#85=ORIENTED_EDGE('',*,*,#189,.F.);
#86=ORIENTED_EDGE('',*,*,#166,.F.);
#87=ORIENTED_EDGE('',*,*,#190,.F.);
#88=ORIENTED_EDGE('',*,*,#191,.F.);
#89=ORIENTED_EDGE('',*,*,#188,.T.);
#90=ORIENTED_EDGE('',*,*,#192,.T.);
#91=ORIENTED_EDGE('',*,*,#193,.F.);
#92=ORIENTED_EDGE('',*,*,#194,.T.);
#93=ORIENTED_EDGE('',*,*,#195,.F.);
#94=ORIENTED_EDGE('',*,*,#167,.F.);
#95=ORIENTED_EDGE('',*,*,#193,.T.);
#96=ORIENTED_EDGE('',*,*,#196,.F.);
#97=ORIENTED_EDGE('',*,*,#197,.F.);
#98=ORIENTED_EDGE('',*,*,#168,.T.);
#99=ORIENTED_EDGE('',*,*,#195,.T.);
#100=ORIENTED_EDGE('',*,*,#198,.T.);
#101=ORIENTED_EDGE('',*,*,#199,.F.);
#102=ORIENTED_EDGE('',*,*,#169,.F.);
#103=ORIENTED_EDGE('',*,*,#197,.T.);
#104=ORIENTED_EDGE('',*,*,#200,.T.);
#105=ORIENTED_EDGE('',*,*,#201,.F.);
#106=ORIENTED_EDGE('',*,*,#170,.F.);
#107=ORIENTED_EDGE('',*,*,#199,.T.);
#108=ORIENTED_EDGE('',*,*,#202,.T.);
#109=ORIENTED_EDGE('',*,*,#203,.F.);
#110=ORIENTED_EDGE('',*,*,#171,.F.);
#111=ORIENTED_EDGE('',*,*,#201,.T.);
#112=ORIENTED_EDGE('',*,*,#204,.F.);
#113=ORIENTED_EDGE('',*,*,#205,.F.);
#114=ORIENTED_EDGE('',*,*,#172,.T.);
#115=ORIENTED_EDGE('',*,*,#203,.T.);
#116=ORIENTED_EDGE('',*,*,#206,.T.);
#117=ORIENTED_EDGE('',*,*,#207,.F.);
#118=ORIENTED_EDGE('',*,*,#173,.F.);
#119=ORIENTED_EDGE('',*,*,#205,.T.);
#120=ORIENTED_EDGE('',*,*,#208,.F.);
#121=ORIENTED_EDGE('',*,*,#209,.F.);
#122=ORIENTED_EDGE('',*,*,#210,.T.);
#123=ORIENTED_EDGE('',*,*,#164,.F.);
#124=ORIENTED_EDGE('',*,*,#207,.T.);
#125=ORIENTED_EDGE('',*,*,#211,.T.);
#126=ORIENTED_EDGE('',*,*,#208,.T.);
#127=ORIENTED_EDGE('',*,*,#212,.T.);
#128=ORIENTED_EDGE('',*,*,#213,.F.);
#129=ORIENTED_EDGE('',*,*,#214,.F.);
#130=ORIENTED_EDGE('',*,*,#213,.T.);
#131=ORIENTED_EDGE('',*,*,#215,.F.);
#132=ORIENTED_EDGE('',*,*,#174,.F.);
#133=ORIENTED_EDGE('',*,*,#216,.T.);
#134=ORIENTED_EDGE('',*,*,#175,.F.);
#135=ORIENTED_EDGE('',*,*,#215,.T.);
#136=ORIENTED_EDGE('',*,*,#212,.F.);
#137=ORIENTED_EDGE('',*,*,#211,.F.);
#138=ORIENTED_EDGE('',*,*,#206,.F.);
#139=ORIENTED_EDGE('',*,*,#204,.T.);
#140=ORIENTED_EDGE('',*,*,#202,.F.);
#141=ORIENTED_EDGE('',*,*,#200,.F.);
#142=ORIENTED_EDGE('',*,*,#198,.F.);
#143=ORIENTED_EDGE('',*,*,#196,.T.);
#144=ORIENTED_EDGE('',*,*,#194,.F.);
#145=ORIENTED_EDGE('',*,*,#192,.F.);
#146=ORIENTED_EDGE('',*,*,#187,.F.);
#147=ORIENTED_EDGE('',*,*,#184,.T.);
#148=ORIENTED_EDGE('',*,*,#181,.F.);
#149=ORIENTED_EDGE('',*,*,#178,.F.);
#150=ORIENTED_EDGE('',*,*,#165,.F.);
#151=ORIENTED_EDGE('',*,*,#210,.F.);
#152=ORIENTED_EDGE('',*,*,#217,.F.);
#153=ORIENTED_EDGE('',*,*,#190,.T.);
#154=ORIENTED_EDGE('',*,*,#177,.T.);
#155=ORIENTED_EDGE('',*,*,#180,.T.);
#156=ORIENTED_EDGE('',*,*,#183,.T.);
#157=ORIENTED_EDGE('',*,*,#186,.F.);
#158=ORIENTED_EDGE('',*,*,#189,.T.);
#159=ORIENTED_EDGE('',*,*,#191,.T.);
#160=ORIENTED_EDGE('',*,*,#217,.T.);
#161=ORIENTED_EDGE('',*,*,#209,.T.);
#162=ORIENTED_EDGE('',*,*,#214,.T.);
#163=ORIENTED_EDGE('',*,*,#216,.F.);
#164=EDGE_CURVE('',#218,#219,#254,.T.);
#165=EDGE_CURVE('',#219,#220,#255,.T.);
#166=EDGE_CURVE('',#220,#221,#256,.T.);
#167=EDGE_CURVE('',#221,#222,#32,.T.);
#168=EDGE_CURVE('',#223,#222,#33,.T.);
#169=EDGE_CURVE('',#223,#224,#34,.T.);
#170=EDGE_CURVE('',#224,#225,#257,.T.);
#171=EDGE_CURVE('',#225,#226,#35,.T.);
#172=EDGE_CURVE('',#227,#226,#36,.T.);
#173=EDGE_CURVE('',#227,#218,#37,.T.);
#174=EDGE_CURVE('',#228,#229,#258,.T.);
#175=EDGE_CURVE('',#229,#230,#38,.T.);
#176=EDGE_CURVE('',#231,#230,#259,.T.);
#177=EDGE_CURVE('',#228,#231,#39,.T.);
#178=EDGE_CURVE('',#230,#232,#260,.T.);
#179=EDGE_CURVE('',#233,#232,#261,.T.);
#180=EDGE_CURVE('',#231,#233,#262,.T.);
#181=EDGE_CURVE('',#232,#234,#40,.T.);
#182=EDGE_CURVE('',#235,#234,#263,.T.);
#183=EDGE_CURVE('',#233,#235,#41,.T.);
#184=EDGE_CURVE('',#236,#234,#42,.T.);
#185=EDGE_CURVE('',#237,#236,#264,.T.);
#186=EDGE_CURVE('',#237,#235,#43,.T.);
#187=EDGE_CURVE('',#236,#238,#44,.T.);
#188=EDGE_CURVE('',#239,#238,#265,.T.);
#189=EDGE_CURVE('',#237,#239,#45,.T.);
#190=EDGE_CURVE('',#240,#220,#266,.T.);
#191=EDGE_CURVE('',#239,#240,#267,.T.);
#192=EDGE_CURVE('',#238,#241,#268,.T.);
#193=EDGE_CURVE('',#221,#241,#269,.T.);
#194=EDGE_CURVE('',#241,#242,#46,.T.);
#195=EDGE_CURVE('',#222,#242,#270,.T.);
#196=EDGE_CURVE('',#243,#242,#47,.T.);
#197=EDGE_CURVE('',#223,#243,#271,.T.);
#198=EDGE_CURVE('',#243,#244,#48,.T.);
#199=EDGE_CURVE('',#224,#244,#272,.T.);
#200=EDGE_CURVE('',#244,#245,#273,.T.);
#201=EDGE_CURVE('',#225,#245,#274,.T.);
#202=EDGE_CURVE('',#245,#246,#49,.T.);
#203=EDGE_CURVE('',#226,#246,#275,.T.);
#204=EDGE_CURVE('',#247,#246,#50,.T.);
#205=EDGE_CURVE('',#227,#247,#276,.T.);
#206=EDGE_CURVE('',#247,#248,#51,.T.);
#207=EDGE_CURVE('',#218,#248,#277,.T.);
#208=EDGE_CURVE('',#249,#250,#278,.T.);
#209=EDGE_CURVE('',#251,#249,#279,.T.);
#210=EDGE_CURVE('',#251,#219,#280,.T.);
#211=EDGE_CURVE('',#248,#250,#281,.T.);
#212=EDGE_CURVE('',#250,#252,#52,.T.);
#213=EDGE_CURVE('',#253,#252,#282,.T.);
#214=EDGE_CURVE('',#249,#253,#53,.T.);
#215=EDGE_CURVE('',#229,#252,#54,.T.);
#216=EDGE_CURVE('',#228,#253,#55,.T.);
#217=EDGE_CURVE('',#240,#251,#283,.T.);
#218=VERTEX_POINT('',#562);
#219=VERTEX_POINT('',#563);
#220=VERTEX_POINT('',#565);
#221=VERTEX_POINT('',#567);
#222=VERTEX_POINT('',#569);
#223=VERTEX_POINT('',#571);
#224=VERTEX_POINT('',#573);
#225=VERTEX_POINT('',#575);
#226=VERTEX_POINT('',#577);
#227=VERTEX_POINT('',#579);
#228=VERTEX_POINT('',#583);
#229=VERTEX_POINT('',#584);
#230=VERTEX_POINT('',#586);
#231=VERTEX_POINT('',#588);
#232=VERTEX_POINT('',#592);
#233=VERTEX_POINT('',#594);
#234=VERTEX_POINT('',#598);
#235=VERTEX_POINT('',#600);
#236=VERTEX_POINT('',#604);
#237=VERTEX_POINT('',#606);
#238=VERTEX_POINT('',#610);
#239=VERTEX_POINT('',#612);
#240=VERTEX_POINT('',#616);
#241=VERTEX_POINT('',#619);
#242=VERTEX_POINT('',#623);
#243=VERTEX_POINT('',#627);
#244=VERTEX_POINT('',#631);
#245=VERTEX_POINT('',#635);
#246=VERTEX_POINT('',#639);
#247=VERTEX_POINT('',#643);
#248=VERTEX_POINT('',#647);
#249=VERTEX_POINT('',#651);
#250=VERTEX_POINT('',#652);
#251=VERTEX_POINT('',#654);
#252=VERTEX_POINT('',#659);
#253=VERTEX_POINT('',#661);
#254=LINE('',#561,#284);
#255=LINE('',#564,#285);
#256=LINE('',#566,#286);
#257=LINE('',#574,#287);
#258=LINE('',#582,#288);
#259=LINE('',#587,#289);
#260=LINE('',#591,#290);
#261=LINE('',#593,#291);
#262=LINE('',#595,#292);
#263=LINE('',#599,#293);
#264=LINE('',#605,#294);
#265=LINE('',#611,#295);
#266=LINE('',#615,#296);
#267=LINE('',#617,#297);
#268=LINE('',#618,#298);
#269=LINE('',#620,#299);
#270=LINE('',#624,#300);
#271=LINE('',#628,#301);
#272=LINE('',#632,#302);
#273=LINE('',#634,#303);
#274=LINE('',#636,#304);
#275=LINE('',#640,#305);
#276=LINE('',#644,#306);
#277=LINE('',#648,#307);
#278=LINE('',#650,#308);
#279=LINE('',#653,#309);
#280=LINE('',#655,#310);
#281=LINE('',#656,#311);
#282=LINE('',#660,#312);
#283=LINE('',#668,#313);
#284=VECTOR('',#443,1000.);
#285=VECTOR('',#444,1000.);
#286=VECTOR('',#445,1000.);
#287=VECTOR('',#452,1000.);
#288=VECTOR('',#461,1000.);
#289=VECTOR('',#464,1000.);
#290=VECTOR('',#469,1000.);
#291=VECTOR('',#470,1000.);
#292=VECTOR('',#471,1000.);
#293=VECTOR('',#476,1000.);
#294=VECTOR('',#483,1000.);
#295=VECTOR('',#490,1000.);
#296=VECTOR('',#495,1000.);
#297=VECTOR('',#496,1000.);
#298=VECTOR('',#497,1000.);
#299=VECTOR('',#498,1000.);
#300=VECTOR('',#503,1000.);
#301=VECTOR('',#508,1000.);
#302=VECTOR('',#513,1000.);
#303=VECTOR('',#516,1000.);
#304=VECTOR('',#517,1000.);
#305=VECTOR('',#522,1000.);
#306=VECTOR('',#527,1000.);
#307=VECTOR('',#532,1000.);
#308=VECTOR('',#535,1000.);
#309=VECTOR('',#536,1000.);
#310=VECTOR('',#537,1000.);
#311=VECTOR('',#538,1000.);
#312=VECTOR('',#543,1000.);
#313=VECTOR('',#556,1000.);
#314=EDGE_LOOP('',(#56,#57,#58,#59,#60,#61,#62,#63,#64,#65));
#315=EDGE_LOOP('',(#66,#67,#68,#69));
#316=EDGE_LOOP('',(#70,#71,#72,#73));
#317=EDGE_LOOP('',(#74,#75,#76,#77));
#318=EDGE_LOOP('',(#78,#79,#80,#81));
#319=EDGE_LOOP('',(#82,#83,#84,#85));
#320=EDGE_LOOP('',(#86,#87,#88,#89,#90,#91));
#321=EDGE_LOOP('',(#92,#93,#94,#95));
#322=EDGE_LOOP('',(#96,#97,#98,#99));
#323=EDGE_LOOP('',(#100,#101,#102,#103));
#324=EDGE_LOOP('',(#104,#105,#106,#107));
#325=EDGE_LOOP('',(#108,#109,#110,#111));
#326=EDGE_LOOP('',(#112,#113,#114,#115));
#327=EDGE_LOOP('',(#116,#117,#118,#119));
#328=EDGE_LOOP('',(#120,#121,#122,#123,#124,#125));
#329=EDGE_LOOP('',(#126,#127,#128,#129));
#330=EDGE_LOOP('',(#130,#131,#132,#133));
#331=EDGE_LOOP('',(#134,#135,#136,#137,#138,#139,#140,#141,#142,#143,#144,
#145,#146,#147,#148,#149));
#332=EDGE_LOOP('',(#150,#151,#152,#153));
#333=EDGE_LOOP('',(#154,#155,#156,#157,#158,#159,#160,#161,#162,#163));
#334=FACE_BOUND('',#314,.T.);
#335=FACE_BOUND('',#315,.T.);
#336=FACE_BOUND('',#316,.T.);
#337=FACE_BOUND('',#317,.T.);
#338=FACE_BOUND('',#318,.T.);
#339=FACE_BOUND('',#319,.T.);
#340=FACE_BOUND('',#320,.T.);
#341=FACE_BOUND('',#321,.T.);
#342=FACE_BOUND('',#322,.T.);
#343=FACE_BOUND('',#323,.T.);
#344=FACE_BOUND('',#324,.T.);
#345=FACE_BOUND('',#325,.T.);
#346=FACE_BOUND('',#326,.T.);
#347=FACE_BOUND('',#327,.T.);
#348=FACE_BOUND('',#328,.T.);
#349=FACE_BOUND('',#329,.T.);
#350=FACE_BOUND('',#330,.T.);
#351=FACE_BOUND('',#331,.T.);
#352=FACE_BOUND('',#332,.T.);
#353=FACE_BOUND('',#333,.T.);
#354=PLANE('',#395);
#355=PLANE('',#405);
#356=PLANE('',#415);
#357=PLANE('',#422);
#358=PLANE('',#429);
#359=PLANE('',#436);
#360=PLANE('',#437);
#361=PLANE('',#438);
#362=ADVANCED_FACE('',(#334),#354,.T.);
#363=ADVANCED_FACE('',(#335),#20,.T.);
#364=ADVANCED_FACE('',(#336),#355,.F.);
#365=ADVANCED_FACE('',(#337),#21,.T.);
#366=ADVANCED_FACE('',(#338),#22,.F.);
#367=ADVANCED_FACE('',(#339),#23,.T.);
#368=ADVANCED_FACE('',(#340),#356,.F.);
#369=ADVANCED_FACE('',(#341),#24,.T.);
#370=ADVANCED_FACE('',(#342),#25,.F.);
#371=ADVANCED_FACE('',(#343),#26,.T.);
#372=ADVANCED_FACE('',(#344),#357,.F.);
#373=ADVANCED_FACE('',(#345),#27,.T.);
#374=ADVANCED_FACE('',(#346),#28,.F.);
#375=ADVANCED_FACE('',(#347),#29,.T.);
#376=ADVANCED_FACE('',(#348),#358,.F.);
#377=ADVANCED_FACE('',(#349),#30,.T.);
#378=ADVANCED_FACE('',(#350),#31,.F.);
#379=ADVANCED_FACE('',(#351),#359,.F.);
#380=ADVANCED_FACE('',(#352),#360,.F.);
#381=ADVANCED_FACE('',(#353),#361,.T.);
#382=CLOSED_SHELL('',(#362,#363,#364,#365,#366,#367,#368,#369,#370,#371,
#372,#373,#374,#375,#376,#377,#378,#379,#380,#381));
#383=STYLED_ITEM('',(#384),#391);
#384=PRESENTATION_STYLE_ASSIGNMENT((#385));
#385=SURFACE_STYLE_USAGE(.BOTH.,#386);
#386=SURFACE_SIDE_STYLE('',(#387));
#387=SURFACE_STYLE_FILL_AREA(#388);
#388=FILL_AREA_STYLE('',(#389));
#389=FILL_AREA_STYLE_COLOUR('',#390);
#390=COLOUR_RGB('',0.689999997615814,0.689999997615814,0.689999997615814);
#391=MANIFOLD_SOLID_BREP('541482 CPX-8DA',#382);
#392=SHAPE_DEFINITION_REPRESENTATION(#676,#393);
#393=SHAPE_REPRESENTATION('541482 CPX-8DA',(#394),#671);
#394=AXIS2_PLACEMENT_3D('',#559,#439,#440);
#395=AXIS2_PLACEMENT_3D('',#560,#441,#442);
#396=AXIS2_PLACEMENT_3D('',#568,#446,#447);
#397=AXIS2_PLACEMENT_3D('',#570,#448,#449);
#398=AXIS2_PLACEMENT_3D('',#572,#450,#451);
#399=AXIS2_PLACEMENT_3D('',#576,#453,#454);
#400=AXIS2_PLACEMENT_3D('',#578,#455,#456);
#401=AXIS2_PLACEMENT_3D('',#580,#457,#458);
#402=AXIS2_PLACEMENT_3D('',#581,#459,#460);
#403=AXIS2_PLACEMENT_3D('',#585,#462,#463);
#404=AXIS2_PLACEMENT_3D('',#589,#465,#466);
#405=AXIS2_PLACEMENT_3D('',#590,#467,#468);
#406=AXIS2_PLACEMENT_3D('',#596,#472,#473);
#407=AXIS2_PLACEMENT_3D('',#597,#474,#475);
#408=AXIS2_PLACEMENT_3D('',#601,#477,#478);
#409=AXIS2_PLACEMENT_3D('',#602,#479,#480);
#410=AXIS2_PLACEMENT_3D('',#603,#481,#482);
#411=AXIS2_PLACEMENT_3D('',#607,#484,#485);
#412=AXIS2_PLACEMENT_3D('',#608,#486,#487);
#413=AXIS2_PLACEMENT_3D('',#609,#488,#489);
#414=AXIS2_PLACEMENT_3D('',#613,#491,#492);
#415=AXIS2_PLACEMENT_3D('',#614,#493,#494);
#416=AXIS2_PLACEMENT_3D('',#621,#499,#500);
#417=AXIS2_PLACEMENT_3D('',#622,#501,#502);
#418=AXIS2_PLACEMENT_3D('',#625,#504,#505);
#419=AXIS2_PLACEMENT_3D('',#626,#506,#507);
#420=AXIS2_PLACEMENT_3D('',#629,#509,#510);
#421=AXIS2_PLACEMENT_3D('',#630,#511,#512);
#422=AXIS2_PLACEMENT_3D('',#633,#514,#515);
#423=AXIS2_PLACEMENT_3D('',#637,#518,#519);
#424=AXIS2_PLACEMENT_3D('',#638,#520,#521);
#425=AXIS2_PLACEMENT_3D('',#641,#523,#524);
#426=AXIS2_PLACEMENT_3D('',#642,#525,#526);
#427=AXIS2_PLACEMENT_3D('',#645,#528,#529);
#428=AXIS2_PLACEMENT_3D('',#646,#530,#531);
#429=AXIS2_PLACEMENT_3D('',#649,#533,#534);
#430=AXIS2_PLACEMENT_3D('',#657,#539,#540);
#431=AXIS2_PLACEMENT_3D('',#658,#541,#542);
#432=AXIS2_PLACEMENT_3D('',#662,#544,#545);
#433=AXIS2_PLACEMENT_3D('',#663,#546,#547);
#434=AXIS2_PLACEMENT_3D('',#664,#548,#549);
#435=AXIS2_PLACEMENT_3D('',#665,#550,#551);
#436=AXIS2_PLACEMENT_3D('',#666,#552,#553);
#437=AXIS2_PLACEMENT_3D('',#667,#554,#555);
#438=AXIS2_PLACEMENT_3D('',#669,#557,#558);
#439=DIRECTION('',(0.,0.,1.));
#440=DIRECTION('',(1.,0.,0.));
#441=DIRECTION('',(0.,1.,0.));
#442=DIRECTION('',(0.,0.,1.));
#443=DIRECTION('',(-1.,0.,0.));
#444=DIRECTION('',(0.,0.,1.));
#445=DIRECTION('',(1.,0.,0.));
#446=DIRECTION('',(0.,1.,0.));
#447=DIRECTION('',(1.,0.,0.));
#448=DIRECTION('',(0.,1.,0.));
#449=DIRECTION('',(1.,0.,0.));
#450=DIRECTION('',(0.,1.,0.));
#451=DIRECTION('',(1.,0.,0.));
#452=DIRECTION('',(0.,0.,-1.));
#453=DIRECTION('',(0.,1.,0.));
#454=DIRECTION('',(1.,0.,0.));
#455=DIRECTION('',(0.,1.,0.));
#456=DIRECTION('',(1.,0.,0.));
#457=DIRECTION('',(0.,1.,0.));
#458=DIRECTION('',(1.,0.,0.));
#459=DIRECTION('',(0.,-1.,0.));
#460=DIRECTION('',(0.,0.,-1.));
#461=DIRECTION('',(0.,-1.,0.));
#462=DIRECTION('',(0.,1.,0.));
#463=DIRECTION('',(1.,0.,0.));
#464=DIRECTION('',(0.,-1.,0.));
#465=DIRECTION('',(0.,1.,0.));
#466=DIRECTION('',(1.,0.,0.));
#467=DIRECTION('',(1.,0.,0.));
#468=DIRECTION('',(0.,0.,-1.));
#469=DIRECTION('',(0.,0.,1.));
#470=DIRECTION('',(0.,-1.,0.));
#471=DIRECTION('',(0.,0.,1.));
#472=DIRECTION('',(0.,-1.,0.));
#473=DIRECTION('',(0.,0.,-1.));
#474=DIRECTION('',(0.,1.,0.));
#475=DIRECTION('',(1.,0.,0.));
#476=DIRECTION('',(0.,-1.,0.));
#477=DIRECTION('',(0.,1.,0.));
#478=DIRECTION('',(1.,0.,0.));
#479=DIRECTION('',(0.,-1.,0.));
#480=DIRECTION('',(0.,0.,-1.));
#481=DIRECTION('',(0.,1.,0.));
#482=DIRECTION('',(1.,0.,0.));
#483=DIRECTION('',(0.,-1.,0.));
#484=DIRECTION('',(0.,1.,0.));
#485=DIRECTION('',(1.,0.,0.));
#486=DIRECTION('',(0.,-1.,0.));
#487=DIRECTION('',(0.,0.,-1.));
#488=DIRECTION('',(0.,1.,0.));
#489=DIRECTION('',(1.,0.,0.));
#490=DIRECTION('',(0.,-1.,0.));
#491=DIRECTION('',(0.,1.,0.));
#492=DIRECTION('',(1.,0.,0.));
#493=DIRECTION('',(0.,0.,-1.));
#494=DIRECTION('',(-1.,0.,0.));
#495=DIRECTION('',(0.,-1.,0.));
#496=DIRECTION('',(1.,0.,0.));
#497=DIRECTION('',(1.,0.,0.));
#498=DIRECTION('',(0.,-1.,0.));
#499=DIRECTION('',(0.,-1.,0.));
#500=DIRECTION('',(0.,0.,-1.));
#501=DIRECTION('',(0.,1.,0.));
#502=DIRECTION('',(1.,0.,0.));
#503=DIRECTION('',(0.,-1.,0.));
#504=DIRECTION('',(0.,-1.,0.));
#505=DIRECTION('',(0.,0.,-1.));
#506=DIRECTION('',(0.,1.,0.));
#507=DIRECTION('',(1.,0.,0.));
#508=DIRECTION('',(0.,-1.,0.));
#509=DIRECTION('',(0.,-1.,0.));
#510=DIRECTION('',(0.,0.,-1.));
#511=DIRECTION('',(0.,1.,0.));
#512=DIRECTION('',(1.,0.,0.));
#513=DIRECTION('',(0.,-1.,0.));
#514=DIRECTION('',(-1.,0.,0.));
#515=DIRECTION('',(0.,0.,1.));
#516=DIRECTION('',(0.,0.,-1.));
#517=DIRECTION('',(0.,-1.,0.));
#518=DIRECTION('',(0.,-1.,0.));
#519=DIRECTION('',(0.,0.,-1.));
#520=DIRECTION('',(0.,1.,0.));
#521=DIRECTION('',(1.,0.,0.));
#522=DIRECTION('',(0.,-1.,0.));
#523=DIRECTION('',(0.,-1.,0.));
#524=DIRECTION('',(0.,0.,-1.));
#525=DIRECTION('',(0.,1.,0.));
#526=DIRECTION('',(1.,0.,0.));
#527=DIRECTION('',(0.,-1.,0.));
#528=DIRECTION('',(0.,-1.,0.));
#529=DIRECTION('',(0.,0.,-1.));
#530=DIRECTION('',(0.,1.,0.));
#531=DIRECTION('',(1.,0.,0.));
#532=DIRECTION('',(0.,-1.,0.));
#533=DIRECTION('',(0.,0.,1.));
#534=DIRECTION('',(1.,0.,0.));
#535=DIRECTION('',(0.,-1.,0.));
#536=DIRECTION('',(-1.,0.,0.));
#537=DIRECTION('',(0.,-1.,0.));
#538=DIRECTION('',(-1.,0.,0.));
#539=DIRECTION('',(0.,-1.,0.));
#540=DIRECTION('',(0.,0.,-1.));
#541=DIRECTION('',(0.,1.,0.));
#542=DIRECTION('',(1.,0.,0.));
#543=DIRECTION('',(0.,-1.,0.));
#544=DIRECTION('',(0.,1.,0.));
#545=DIRECTION('',(1.,0.,0.));
#546=DIRECTION('',(0.,-1.,0.));
#547=DIRECTION('',(0.,0.,-1.));
#548=DIRECTION('',(0.,1.,0.));
#549=DIRECTION('',(1.,0.,0.));
#550=DIRECTION('',(0.,1.,0.));
#551=DIRECTION('',(1.,0.,0.));
#552=DIRECTION('',(0.,1.,0.));
#553=DIRECTION('',(0.,0.,1.));
#554=DIRECTION('',(-1.,0.,0.));
#555=DIRECTION('',(0.,0.,1.));
#556=DIRECTION('',(0.,0.,-1.));
#557=DIRECTION('',(0.,1.,0.));
#558=DIRECTION('',(0.,0.,1.));
#559=CARTESIAN_POINT('',(0.,0.,0.));
#560=CARTESIAN_POINT('',(-45.91,16.6,-12.1512039139751));
#561=CARTESIAN_POINT('',(40.2079777833558,16.6,-20.5));
#562=CARTESIAN_POINT('',(40.2079777833558,16.6,-20.5));
#563=CARTESIAN_POINT('',(-26.,16.6,-20.5));
#564=CARTESIAN_POINT('',(-26.,16.6,-12.1512039139751));
#565=CARTESIAN_POINT('',(-26.,16.6,20.5));
#566=CARTESIAN_POINT('',(-39.4234207868519,16.6,20.5));
#567=CARTESIAN_POINT('',(40.2079777833558,16.6,20.5));
#568=CARTESIAN_POINT('',(40.2079777833558,16.6,18.62));
#569=CARTESIAN_POINT('',(42.0606963279181,16.6,18.9391143911439));
#570=CARTESIAN_POINT('',(48.22,16.6,20.));
#571=CARTESIAN_POINT('',(46.9131119311193,16.6,13.8881636494898));
#572=CARTESIAN_POINT('',(46.52,16.6,12.0497232752564));
#573=CARTESIAN_POINT('',(48.4,16.6,12.0497232752564));
#574=CARTESIAN_POINT('',(48.4,16.6,12.0497232752564));
#575=CARTESIAN_POINT('',(48.4,16.6,-12.0497232752564));
#576=CARTESIAN_POINT('',(46.52,16.6,-12.0497232752564));
#577=CARTESIAN_POINT('',(46.9131119311193,16.6,-13.8881636494898));
#578=CARTESIAN_POINT('',(48.22,16.6,-20.));
#579=CARTESIAN_POINT('',(42.0606963279181,16.6,-18.9391143911439));
#580=CARTESIAN_POINT('',(40.2079777833558,16.6,-18.62));
#581=CARTESIAN_POINT('',(-45.91,9.8,-12.1512039139751));
#582=CARTESIAN_POINT('',(-46.2863222863869,9.8,-14.6126022029094));
#583=CARTESIAN_POINT('',(-46.2863222863869,24.8,-14.6126022029094));
#584=CARTESIAN_POINT('',(-46.2863222863869,0.,-14.6126022029094));
#585=CARTESIAN_POINT('',(-45.91,0.,-12.1512039139751));
#586=CARTESIAN_POINT('',(-48.4,0.,-12.1512039139751));
#587=CARTESIAN_POINT('',(-48.4,9.8,-12.1512039139751));
#588=CARTESIAN_POINT('',(-48.4,24.8,-12.1512039139751));
#589=CARTESIAN_POINT('',(-45.91,24.8,-12.1512039139751));
#590=CARTESIAN_POINT('',(-48.4,9.8,-12.1512039139751));
#591=CARTESIAN_POINT('',(-48.4,0.,-12.1512039139751));
#592=CARTESIAN_POINT('',(-48.4,0.,12.1512039139751));
#593=CARTESIAN_POINT('',(-48.4,9.8,12.1512039139751));
#594=CARTESIAN_POINT('',(-48.4,24.8,12.1512039139751));
#595=CARTESIAN_POINT('',(-48.4,24.8,-12.1512039139751));
#596=CARTESIAN_POINT('',(-45.91,9.8,12.1512039139751));
#597=CARTESIAN_POINT('',(-45.91,0.,12.1512039139751));
#598=CARTESIAN_POINT('',(-46.286322418136,0.,14.6126021827663));
#599=CARTESIAN_POINT('',(-46.286322418136,9.8,14.6126021827663));
#600=CARTESIAN_POINT('',(-46.286322418136,24.8,14.6126021827663));
#601=CARTESIAN_POINT('',(-45.91,24.8,12.1512039139751));
#602=CARTESIAN_POINT('',(-47.11,9.8,20.));
#603=CARTESIAN_POINT('',(-47.11,0.,20.));
#604=CARTESIAN_POINT('',(-41.8339475174236,0.,18.6340680100756));
#605=CARTESIAN_POINT('',(-41.8339475174236,9.8,18.6340680100756));
#606=CARTESIAN_POINT('',(-41.8339475174236,24.8,18.6340680100756));
#607=CARTESIAN_POINT('',(-47.11,24.8,20.));
#608=CARTESIAN_POINT('',(-39.4234207868519,9.8,18.01));
#609=CARTESIAN_POINT('',(-39.4234207868519,0.,18.01));
#610=CARTESIAN_POINT('',(-39.4234207868519,0.,20.5));
#611=CARTESIAN_POINT('',(-39.4234207868519,9.8,20.5));
#612=CARTESIAN_POINT('',(-39.4234207868519,24.8,20.5));
#613=CARTESIAN_POINT('',(-39.4234207868519,24.8,18.01));
#614=CARTESIAN_POINT('',(-39.4234207868519,9.8,20.5));
#615=CARTESIAN_POINT('',(-26.,24.8,20.5));
#616=CARTESIAN_POINT('',(-26.,24.8,20.5));
#617=CARTESIAN_POINT('',(-39.4234207868519,24.8,20.5));
#618=CARTESIAN_POINT('',(-39.4234207868519,0.,20.5));
#619=CARTESIAN_POINT('',(40.2079777833558,0.,20.5));
#620=CARTESIAN_POINT('',(40.2079777833558,9.8,20.5));
#621=CARTESIAN_POINT('',(40.2079777833558,9.8,18.62));
#622=CARTESIAN_POINT('',(40.2079777833558,0.,18.62));
#623=CARTESIAN_POINT('',(42.0606963279181,0.,18.9391143911439));
#624=CARTESIAN_POINT('',(42.0606963279181,9.8,18.9391143911439));
#625=CARTESIAN_POINT('',(48.22,9.8,20.));
#626=CARTESIAN_POINT('',(48.22,0.,20.));
#627=CARTESIAN_POINT('',(46.9131119311193,0.,13.8881636494898));
#628=CARTESIAN_POINT('',(46.9131119311193,9.8,13.8881636494898));
#629=CARTESIAN_POINT('',(46.52,9.8,12.0497232752564));
#630=CARTESIAN_POINT('',(46.52,0.,12.0497232752564));
#631=CARTESIAN_POINT('',(48.4,0.,12.0497232752564));
#632=CARTESIAN_POINT('',(48.4,9.8,12.0497232752564));
#633=CARTESIAN_POINT('',(48.4,9.8,12.0497232752564));
#634=CARTESIAN_POINT('',(48.4,0.,12.0497232752564));
#635=CARTESIAN_POINT('',(48.4,0.,-12.0497232752564));
#636=CARTESIAN_POINT('',(48.4,9.8,-12.0497232752564));
#637=CARTESIAN_POINT('',(46.52,9.8,-12.0497232752564));
#638=CARTESIAN_POINT('',(46.52,0.,-12.0497232752564));
#639=CARTESIAN_POINT('',(46.9131119311193,0.,-13.8881636494898));
#640=CARTESIAN_POINT('',(46.9131119311193,9.8,-13.8881636494898));
#641=CARTESIAN_POINT('',(48.22,9.8,-20.));
#642=CARTESIAN_POINT('',(48.22,0.,-20.));
#643=CARTESIAN_POINT('',(42.0606963279181,0.,-18.9391143911439));
#644=CARTESIAN_POINT('',(42.0606963279181,9.8,-18.9391143911439));
#645=CARTESIAN_POINT('',(40.2079777833558,9.8,-18.62));
#646=CARTESIAN_POINT('',(40.2079777833558,0.,-18.62));
#647=CARTESIAN_POINT('',(40.2079777833558,0.,-20.5));
#648=CARTESIAN_POINT('',(40.2079777833558,9.8,-20.5));
#649=CARTESIAN_POINT('',(40.2079777833558,9.8,-20.5));
#650=CARTESIAN_POINT('',(-39.4234207868519,9.8,-20.5));
#651=CARTESIAN_POINT('',(-39.4234207868519,24.8,-20.5));
#652=CARTESIAN_POINT('',(-39.4234207868519,0.,-20.5));
#653=CARTESIAN_POINT('',(-26.,24.8,-20.5));
#654=CARTESIAN_POINT('',(-26.,24.8,-20.5));
#655=CARTESIAN_POINT('',(-26.,24.8,-20.5));
#656=CARTESIAN_POINT('',(40.2079777833558,0.,-20.5));
#657=CARTESIAN_POINT('',(-39.4234207868519,9.8,-18.01));
#658=CARTESIAN_POINT('',(-39.4234207868519,0.,-18.01));
#659=CARTESIAN_POINT('',(-41.8339475174236,0.,-18.6340680100756));
#660=CARTESIAN_POINT('',(-41.8339475174236,9.8,-18.6340680100756));
#661=CARTESIAN_POINT('',(-41.8339475174236,24.8,-18.6340680100756));
#662=CARTESIAN_POINT('',(-39.4234207868519,24.8,-18.01));
#663=CARTESIAN_POINT('',(-47.11,9.8,-20.));
#664=CARTESIAN_POINT('',(-47.11,0.,-20.));
#665=CARTESIAN_POINT('',(-47.11,24.8,-20.));
#666=CARTESIAN_POINT('',(-45.91,0.,-12.1512039139751));
#667=CARTESIAN_POINT('',(-26.,24.8,20.5));
#668=CARTESIAN_POINT('',(-26.,24.8,20.5));
#669=CARTESIAN_POINT('',(-45.91,24.8,-12.1512039139751));
#670=MECHANICAL_DESIGN_GEOMETRIC_PRESENTATION_REPRESENTATION('',(#383),
#671);
#671=(
GEOMETRIC_REPRESENTATION_CONTEXT(3)
GLOBAL_UNCERTAINTY_ASSIGNED_CONTEXT((#672))
GLOBAL_UNIT_ASSIGNED_CONTEXT((#675,#674,#673))
REPRESENTATION_CONTEXT('541482 CPX-8DA','TOP_LEVEL_ASSEMBLY_PART')
);
#672=UNCERTAINTY_MEASURE_WITH_UNIT(LENGTH_MEASURE(0.005),#675,
'DISTANCE_ACCURACY_VALUE','Maximum Tolerance applied to model');
#673=(
NAMED_UNIT(*)
SI_UNIT($,.STERADIAN.)
SOLID_ANGLE_UNIT()
);
#674=(
NAMED_UNIT(*)
PLANE_ANGLE_UNIT()
SI_UNIT($,.RADIAN.)
);
#675=(
LENGTH_UNIT()
NAMED_UNIT(*)
SI_UNIT(.MILLI.,.METRE.)
);
#676=PRODUCT_DEFINITION_SHAPE('','',#677);
#677=PRODUCT_DEFINITION('','',#679,#678);
#678=PRODUCT_DEFINITION_CONTEXT('',#685,'design');
#679=PRODUCT_DEFINITION_FORMATION_WITH_SPECIFIED_SOURCE('','',#681,
 .NOT_KNOWN.);
#680=PRODUCT_RELATED_PRODUCT_CATEGORY('','',(#681));
#681=PRODUCT('541482 CPX-8DA','541482 CPX-8DA','541482 CPX-8DA',(#683));
#682=PRODUCT_CATEGORY('','');
#683=PRODUCT_CONTEXT('',#685,'mechanical');
#684=APPLICATION_PROTOCOL_DEFINITION('international standard',
'automotive_design',2010,#685);
#685=APPLICATION_CONTEXT(
'core data for automotive mechanical design processes');
ENDSEC;
END-ISO-10303-21;
