ISO-10303-21;
HEADER;
/* Generated by software containing ST-Developer
 * from STEP Tools, Inc. (www.steptools.com) 
 */
/* OPTION: using custom renumber hook */

FILE_DESCRIPTION(
/* description */ ('STEP AP214'),
/* implementation_level */ '2;1');

FILE_NAME(
/* name */ '4588_BZ-1-22',
/* time_stamp */ '2024-08-05T15:49:19+02:00',
/* author */ ('License CC BY-ND 4.0'),
/* organization */ ('CADENAS'),
/* preprocessor_version */ 'ST-DEVELOPER v19.3',
/* originating_system */ 'PARTsolutions',
/* authorisation */ '  ');

FILE_SCHEMA (('AUTOMOTIVE_DESIGN {1 0 10303 214 3 1 1}'));
ENDSEC;

DATA;
#10=PROPERTY_DEFINITION_REPRESENTATION(#14,#12);
#11=PROPERTY_DEFINITION_REPRESENTATION(#15,#13);
#12=REPRESENTATION('',(#16),#455);
#13=REPRESENTATION('',(#17),#455);
#14=PROPERTY_DEFINITION('pmi validation property','',#460);
#15=PROPERTY_DEFINITION('pmi validation property','',#460);
#16=VALUE_REPRESENTATION_ITEM('number of annotations',COUNT_MEASURE(0.));
#17=VALUE_REPRESENTATION_ITEM('number of views',COUNT_MEASURE(0.));
#18=SHAPE_REPRESENTATION_RELATIONSHIP('','',#293,#19);
#19=ADVANCED_BREP_SHAPE_REPRESENTATION('',(#291),#455);
#20=CYLINDRICAL_SURFACE('',#308,11.15);
#21=CIRCLE('',#296,11.15);
#22=CIRCLE('',#298,11.15);
#23=ORIENTED_EDGE('',*,*,#95,.T.);
#24=ORIENTED_EDGE('',*,*,#96,.T.);
#25=ORIENTED_EDGE('',*,*,#97,.T.);
#26=ORIENTED_EDGE('',*,*,#98,.T.);
#27=ORIENTED_EDGE('',*,*,#99,.T.);
#28=ORIENTED_EDGE('',*,*,#100,.T.);
#29=ORIENTED_EDGE('',*,*,#101,.T.);
#30=ORIENTED_EDGE('',*,*,#102,.T.);
#31=ORIENTED_EDGE('',*,*,#103,.F.);
#32=ORIENTED_EDGE('',*,*,#104,.F.);
#33=ORIENTED_EDGE('',*,*,#105,.F.);
#34=ORIENTED_EDGE('',*,*,#106,.F.);
#35=ORIENTED_EDGE('',*,*,#107,.F.);
#36=ORIENTED_EDGE('',*,*,#108,.F.);
#37=ORIENTED_EDGE('',*,*,#109,.F.);
#38=ORIENTED_EDGE('',*,*,#110,.F.);
#39=ORIENTED_EDGE('',*,*,#111,.F.);
#40=ORIENTED_EDGE('',*,*,#112,.F.);
#41=ORIENTED_EDGE('',*,*,#113,.F.);
#42=ORIENTED_EDGE('',*,*,#114,.F.);
#43=ORIENTED_EDGE('',*,*,#115,.T.);
#44=ORIENTED_EDGE('',*,*,#116,.T.);
#45=ORIENTED_EDGE('',*,*,#117,.T.);
#46=ORIENTED_EDGE('',*,*,#118,.T.);
#47=ORIENTED_EDGE('',*,*,#107,.T.);
#48=ORIENTED_EDGE('',*,*,#119,.F.);
#49=ORIENTED_EDGE('',*,*,#95,.F.);
#50=ORIENTED_EDGE('',*,*,#120,.T.);
#51=ORIENTED_EDGE('',*,*,#114,.T.);
#52=ORIENTED_EDGE('',*,*,#121,.F.);
#53=ORIENTED_EDGE('',*,*,#96,.F.);
#54=ORIENTED_EDGE('',*,*,#119,.T.);
#55=ORIENTED_EDGE('',*,*,#113,.T.);
#56=ORIENTED_EDGE('',*,*,#122,.F.);
#57=ORIENTED_EDGE('',*,*,#97,.F.);
#58=ORIENTED_EDGE('',*,*,#121,.T.);
#59=ORIENTED_EDGE('',*,*,#112,.T.);
#60=ORIENTED_EDGE('',*,*,#123,.F.);
#61=ORIENTED_EDGE('',*,*,#98,.F.);
#62=ORIENTED_EDGE('',*,*,#122,.T.);
#63=ORIENTED_EDGE('',*,*,#111,.T.);
#64=ORIENTED_EDGE('',*,*,#124,.F.);
#65=ORIENTED_EDGE('',*,*,#99,.F.);
#66=ORIENTED_EDGE('',*,*,#123,.T.);
#67=ORIENTED_EDGE('',*,*,#110,.T.);
#68=ORIENTED_EDGE('',*,*,#125,.F.);
#69=ORIENTED_EDGE('',*,*,#100,.F.);
#70=ORIENTED_EDGE('',*,*,#124,.T.);
#71=ORIENTED_EDGE('',*,*,#109,.T.);
#72=ORIENTED_EDGE('',*,*,#126,.F.);
#73=ORIENTED_EDGE('',*,*,#101,.F.);
#74=ORIENTED_EDGE('',*,*,#125,.T.);
#75=ORIENTED_EDGE('',*,*,#108,.T.);
#76=ORIENTED_EDGE('',*,*,#120,.F.);
#77=ORIENTED_EDGE('',*,*,#102,.F.);
#78=ORIENTED_EDGE('',*,*,#126,.T.);
#79=ORIENTED_EDGE('',*,*,#115,.F.);
#80=ORIENTED_EDGE('',*,*,#127,.F.);
#81=ORIENTED_EDGE('',*,*,#104,.T.);
#82=ORIENTED_EDGE('',*,*,#128,.T.);
#83=ORIENTED_EDGE('',*,*,#116,.F.);
#84=ORIENTED_EDGE('',*,*,#128,.F.);
#85=ORIENTED_EDGE('',*,*,#103,.T.);
#86=ORIENTED_EDGE('',*,*,#129,.T.);
#87=ORIENTED_EDGE('',*,*,#117,.F.);
#88=ORIENTED_EDGE('',*,*,#129,.F.);
#89=ORIENTED_EDGE('',*,*,#106,.T.);
#90=ORIENTED_EDGE('',*,*,#130,.T.);
#91=ORIENTED_EDGE('',*,*,#118,.F.);
#92=ORIENTED_EDGE('',*,*,#130,.F.);
#93=ORIENTED_EDGE('',*,*,#105,.T.);
#94=ORIENTED_EDGE('',*,*,#127,.T.);
#95=EDGE_CURVE('',#131,#132,#155,.T.);
#96=EDGE_CURVE('',#132,#133,#156,.T.);
#97=EDGE_CURVE('',#133,#134,#157,.T.);
#98=EDGE_CURVE('',#134,#135,#158,.T.);
#99=EDGE_CURVE('',#135,#136,#159,.T.);
#100=EDGE_CURVE('',#136,#137,#160,.T.);
#101=EDGE_CURVE('',#137,#138,#161,.T.);
#102=EDGE_CURVE('',#138,#131,#162,.T.);
#103=EDGE_CURVE('',#139,#140,#21,.T.);
#104=EDGE_CURVE('',#141,#139,#163,.T.);
#105=EDGE_CURVE('',#142,#141,#164,.T.);
#106=EDGE_CURVE('',#140,#142,#165,.T.);
#107=EDGE_CURVE('',#143,#144,#166,.T.);
#108=EDGE_CURVE('',#145,#143,#167,.T.);
#109=EDGE_CURVE('',#146,#145,#168,.T.);
#110=EDGE_CURVE('',#147,#146,#169,.T.);
#111=EDGE_CURVE('',#148,#147,#170,.T.);
#112=EDGE_CURVE('',#149,#148,#171,.T.);
#113=EDGE_CURVE('',#150,#149,#172,.T.);
#114=EDGE_CURVE('',#144,#150,#173,.T.);
#115=EDGE_CURVE('',#151,#152,#174,.T.);
#116=EDGE_CURVE('',#152,#153,#22,.T.);
#117=EDGE_CURVE('',#153,#154,#175,.T.);
#118=EDGE_CURVE('',#154,#151,#176,.T.);
#119=EDGE_CURVE('',#132,#144,#177,.T.);
#120=EDGE_CURVE('',#131,#143,#178,.T.);
#121=EDGE_CURVE('',#133,#150,#179,.T.);
#122=EDGE_CURVE('',#134,#149,#180,.T.);
#123=EDGE_CURVE('',#135,#148,#181,.T.);
#124=EDGE_CURVE('',#136,#147,#182,.T.);
#125=EDGE_CURVE('',#137,#146,#183,.T.);
#126=EDGE_CURVE('',#138,#145,#184,.T.);
#127=EDGE_CURVE('',#141,#151,#185,.T.);
#128=EDGE_CURVE('',#139,#152,#186,.T.);
#129=EDGE_CURVE('',#140,#153,#187,.T.);
#130=EDGE_CURVE('',#142,#154,#188,.T.);
#131=VERTEX_POINT('',#382);
#132=VERTEX_POINT('',#383);
#133=VERTEX_POINT('',#385);
#134=VERTEX_POINT('',#387);
#135=VERTEX_POINT('',#389);
#136=VERTEX_POINT('',#391);
#137=VERTEX_POINT('',#393);
#138=VERTEX_POINT('',#395);
#139=VERTEX_POINT('',#398);
#140=VERTEX_POINT('',#399);
#141=VERTEX_POINT('',#401);
#142=VERTEX_POINT('',#403);
#143=VERTEX_POINT('',#407);
#144=VERTEX_POINT('',#408);
#145=VERTEX_POINT('',#410);
#146=VERTEX_POINT('',#412);
#147=VERTEX_POINT('',#414);
#148=VERTEX_POINT('',#416);
#149=VERTEX_POINT('',#418);
#150=VERTEX_POINT('',#420);
#151=VERTEX_POINT('',#423);
#152=VERTEX_POINT('',#424);
#153=VERTEX_POINT('',#426);
#154=VERTEX_POINT('',#428);
#155=LINE('',#381,#189);
#156=LINE('',#384,#190);
#157=LINE('',#386,#191);
#158=LINE('',#388,#192);
#159=LINE('',#390,#193);
#160=LINE('',#392,#194);
#161=LINE('',#394,#195);
#162=LINE('',#396,#196);
#163=LINE('',#400,#197);
#164=LINE('',#402,#198);
#165=LINE('',#404,#199);
#166=LINE('',#406,#200);
#167=LINE('',#409,#201);
#168=LINE('',#411,#202);
#169=LINE('',#413,#203);
#170=LINE('',#415,#204);
#171=LINE('',#417,#205);
#172=LINE('',#419,#206);
#173=LINE('',#421,#207);
#174=LINE('',#422,#208);
#175=LINE('',#427,#209);
#176=LINE('',#429,#210);
#177=LINE('',#431,#211);
#178=LINE('',#432,#212);
#179=LINE('',#434,#213);
#180=LINE('',#436,#214);
#181=LINE('',#438,#215);
#182=LINE('',#440,#216);
#183=LINE('',#442,#217);
#184=LINE('',#444,#218);
#185=LINE('',#447,#219);
#186=LINE('',#448,#220);
#187=LINE('',#450,#221);
#188=LINE('',#452,#222);
#189=VECTOR('',#315,1000.);
#190=VECTOR('',#316,1000.);
#191=VECTOR('',#317,1000.);
#192=VECTOR('',#318,1000.);
#193=VECTOR('',#319,1000.);
#194=VECTOR('',#320,1000.);
#195=VECTOR('',#321,1000.);
#196=VECTOR('',#322,1000.);
#197=VECTOR('',#325,1000.);
#198=VECTOR('',#326,1000.);
#199=VECTOR('',#327,1000.);
#200=VECTOR('',#330,1000.);
#201=VECTOR('',#331,1000.);
#202=VECTOR('',#332,1000.);
#203=VECTOR('',#333,1000.);
#204=VECTOR('',#334,1000.);
#205=VECTOR('',#335,1000.);
#206=VECTOR('',#336,1000.);
#207=VECTOR('',#337,1000.);
#208=VECTOR('',#338,1000.);
#209=VECTOR('',#341,1000.);
#210=VECTOR('',#342,1000.);
#211=VECTOR('',#345,1000.);
#212=VECTOR('',#346,1000.);
#213=VECTOR('',#349,1000.);
#214=VECTOR('',#352,1000.);
#215=VECTOR('',#355,1000.);
#216=VECTOR('',#358,1000.);
#217=VECTOR('',#361,1000.);
#218=VECTOR('',#364,1000.);
#219=VECTOR('',#369,1000.);
#220=VECTOR('',#370,1000.);
#221=VECTOR('',#373,1000.);
#222=VECTOR('',#376,1000.);
#223=EDGE_LOOP('',(#23,#24,#25,#26,#27,#28,#29,#30));
#224=EDGE_LOOP('',(#31,#32,#33,#34));
#225=EDGE_LOOP('',(#35,#36,#37,#38,#39,#40,#41,#42));
#226=EDGE_LOOP('',(#43,#44,#45,#46));
#227=EDGE_LOOP('',(#47,#48,#49,#50));
#228=EDGE_LOOP('',(#51,#52,#53,#54));
#229=EDGE_LOOP('',(#55,#56,#57,#58));
#230=EDGE_LOOP('',(#59,#60,#61,#62));
#231=EDGE_LOOP('',(#63,#64,#65,#66));
#232=EDGE_LOOP('',(#67,#68,#69,#70));
#233=EDGE_LOOP('',(#71,#72,#73,#74));
#234=EDGE_LOOP('',(#75,#76,#77,#78));
#235=EDGE_LOOP('',(#79,#80,#81,#82));
#236=EDGE_LOOP('',(#83,#84,#85,#86));
#237=EDGE_LOOP('',(#87,#88,#89,#90));
#238=EDGE_LOOP('',(#91,#92,#93,#94));
#239=FACE_BOUND('',#223,.T.);
#240=FACE_BOUND('',#224,.T.);
#241=FACE_BOUND('',#225,.T.);
#242=FACE_BOUND('',#226,.T.);
#243=FACE_BOUND('',#227,.T.);
#244=FACE_BOUND('',#228,.T.);
#245=FACE_BOUND('',#229,.T.);
#246=FACE_BOUND('',#230,.T.);
#247=FACE_BOUND('',#231,.T.);
#248=FACE_BOUND('',#232,.T.);
#249=FACE_BOUND('',#233,.T.);
#250=FACE_BOUND('',#234,.T.);
#251=FACE_BOUND('',#235,.T.);
#252=FACE_BOUND('',#236,.T.);
#253=FACE_BOUND('',#237,.T.);
#254=FACE_BOUND('',#238,.T.);
#255=PLANE('',#295);
#256=PLANE('',#297);
#257=PLANE('',#299);
#258=PLANE('',#300);
#259=PLANE('',#301);
#260=PLANE('',#302);
#261=PLANE('',#303);
#262=PLANE('',#304);
#263=PLANE('',#305);
#264=PLANE('',#306);
#265=PLANE('',#307);
#266=PLANE('',#309);
#267=PLANE('',#310);
#268=ADVANCED_FACE('',(#239,#240),#255,.T.);
#269=ADVANCED_FACE('',(#241,#242),#256,.F.);
#270=ADVANCED_FACE('',(#243),#257,.F.);
#271=ADVANCED_FACE('',(#244),#258,.F.);
#272=ADVANCED_FACE('',(#245),#259,.F.);
#273=ADVANCED_FACE('',(#246),#260,.F.);
#274=ADVANCED_FACE('',(#247),#261,.F.);
#275=ADVANCED_FACE('',(#248),#262,.F.);
#276=ADVANCED_FACE('',(#249),#263,.F.);
#277=ADVANCED_FACE('',(#250),#264,.F.);
#278=ADVANCED_FACE('',(#251),#265,.T.);
#279=ADVANCED_FACE('',(#252),#20,.F.);
#280=ADVANCED_FACE('',(#253),#266,.T.);
#281=ADVANCED_FACE('',(#254),#267,.T.);
#282=CLOSED_SHELL('',(#268,#269,#270,#271,#272,#273,#274,#275,#276,#277,
#278,#279,#280,#281));
#283=STYLED_ITEM('',(#284),#291);
#284=PRESENTATION_STYLE_ASSIGNMENT((#285));
#285=SURFACE_STYLE_USAGE(.BOTH.,#286);
#286=SURFACE_SIDE_STYLE('',(#287));
#287=SURFACE_STYLE_FILL_AREA(#288);
#288=FILL_AREA_STYLE('',(#289));
#289=FILL_AREA_STYLE_COLOUR('',#290);
#290=COLOUR_RGB('',0.689999997615814,0.689999997615814,0.689999997615814);
#291=MANIFOLD_SOLID_BREP('4588 BZ-1-22',#282);
#292=SHAPE_DEFINITION_REPRESENTATION(#460,#293);
#293=SHAPE_REPRESENTATION('4588 BZ-1-22',(#294),#455);
#294=AXIS2_PLACEMENT_3D('',#379,#311,#312);
#295=AXIS2_PLACEMENT_3D('',#380,#313,#314);
#296=AXIS2_PLACEMENT_3D('',#397,#323,#324);
#297=AXIS2_PLACEMENT_3D('',#405,#328,#329);
#298=AXIS2_PLACEMENT_3D('',#425,#339,#340);
#299=AXIS2_PLACEMENT_3D('',#430,#343,#344);
#300=AXIS2_PLACEMENT_3D('',#433,#347,#348);
#301=AXIS2_PLACEMENT_3D('',#435,#350,#351);
#302=AXIS2_PLACEMENT_3D('',#437,#353,#354);
#303=AXIS2_PLACEMENT_3D('',#439,#356,#357);
#304=AXIS2_PLACEMENT_3D('',#441,#359,#360);
#305=AXIS2_PLACEMENT_3D('',#443,#362,#363);
#306=AXIS2_PLACEMENT_3D('',#445,#365,#366);
#307=AXIS2_PLACEMENT_3D('',#446,#367,#368);
#308=AXIS2_PLACEMENT_3D('',#449,#371,#372);
#309=AXIS2_PLACEMENT_3D('',#451,#374,#375);
#310=AXIS2_PLACEMENT_3D('',#453,#377,#378);
#311=DIRECTION('',(0.,0.,1.));
#312=DIRECTION('',(1.,0.,0.));
#313=DIRECTION('',(1.,0.,0.));
#314=DIRECTION('',(0.,0.,-1.));
#315=DIRECTION('',(0.,-1.,0.));
#316=DIRECTION('',(0.,-0.992546151641322,-0.121869343405148));
#317=DIRECTION('',(0.,0.,-1.));
#318=DIRECTION('',(0.,0.992546151641322,-0.121869343405148));
#319=DIRECTION('',(0.,1.,0.));
#320=DIRECTION('',(0.,0.992546151641322,0.121869343405148));
#321=DIRECTION('',(0.,0.,1.));
#322=DIRECTION('',(0.,-0.992546151641322,0.121869343405148));
#323=DIRECTION('',(1.,0.,0.));
#324=DIRECTION('',(0.,0.,-1.));
#325=DIRECTION('',(0.,-1.,0.));
#326=DIRECTION('',(0.,0.,1.));
#327=DIRECTION('',(0.,1.,0.));
#328=DIRECTION('',(1.,0.,0.));
#329=DIRECTION('',(0.,0.,-1.));
#330=DIRECTION('',(0.,-1.,0.));
#331=DIRECTION('',(0.,-0.992546151641322,0.121869343405148));
#332=DIRECTION('',(0.,0.,1.));
#333=DIRECTION('',(0.,0.992546151641322,0.121869343405148));
#334=DIRECTION('',(0.,1.,0.));
#335=DIRECTION('',(0.,0.992546151641322,-0.121869343405148));
#336=DIRECTION('',(0.,0.,-1.));
#337=DIRECTION('',(0.,-0.992546151641322,-0.121869343405148));
#338=DIRECTION('',(0.,-1.,0.));
#339=DIRECTION('',(1.,0.,0.));
#340=DIRECTION('',(0.,0.,-1.));
#341=DIRECTION('',(0.,1.,0.));
#342=DIRECTION('',(0.,0.,1.));
#343=DIRECTION('',(0.,0.,-1.));
#344=DIRECTION('',(-1.,0.,0.));
#345=DIRECTION('',(-1.,0.,0.));
#346=DIRECTION('',(-1.,0.,0.));
#347=DIRECTION('',(0.,0.121869343405148,-0.992546151641322));
#348=DIRECTION('',(0.,0.992546151641322,0.121869343405148));
#349=DIRECTION('',(-1.,0.,0.));
#350=DIRECTION('',(0.,1.,0.));
#351=DIRECTION('',(0.,0.,1.));
#352=DIRECTION('',(-1.,0.,0.));
#353=DIRECTION('',(0.,0.121869343405148,0.992546151641322));
#354=DIRECTION('',(0.,-0.992546151641322,0.121869343405148));
#355=DIRECTION('',(-1.,0.,0.));
#356=DIRECTION('',(0.,0.,1.));
#357=DIRECTION('',(1.,0.,0.));
#358=DIRECTION('',(-1.,0.,0.));
#359=DIRECTION('',(0.,-0.121869343405148,0.992546151641322));
#360=DIRECTION('',(0.,-0.992546151641322,-0.121869343405148));
#361=DIRECTION('',(-1.,0.,0.));
#362=DIRECTION('',(0.,-1.,0.));
#363=DIRECTION('',(0.,0.,-1.));
#364=DIRECTION('',(-1.,0.,0.));
#365=DIRECTION('',(0.,-0.121869343405148,-0.992546151641322));
#366=DIRECTION('',(0.,0.992546151641322,-0.121869343405148));
#367=DIRECTION('',(0.,0.,-1.));
#368=DIRECTION('',(-1.,0.,0.));
#369=DIRECTION('',(-1.,0.,0.));
#370=DIRECTION('',(-1.,0.,0.));
#371=DIRECTION('',(-1.,0.,0.));
#372=DIRECTION('',(0.,0.,1.));
#373=DIRECTION('',(-1.,0.,0.));
#374=DIRECTION('',(0.,0.,1.));
#375=DIRECTION('',(1.,0.,0.));
#376=DIRECTION('',(-1.,0.,0.));
#377=DIRECTION('',(0.,-1.,0.));
#378=DIRECTION('',(0.,0.,-1.));
#379=CARTESIAN_POINT('',(0.,0.,0.));
#380=CARTESIAN_POINT('',(0.5,0.,0.));
#381=CARTESIAN_POINT('',(0.5,16.,15.));
#382=CARTESIAN_POINT('',(0.5,16.,15.));
#383=CARTESIAN_POINT('',(0.5,-5.,15.));
#384=CARTESIAN_POINT('',(0.5,-5.,15.));
#385=CARTESIAN_POINT('',(0.5,-15.,13.772154390971));
#386=CARTESIAN_POINT('',(0.5,-15.,13.772154390971));
#387=CARTESIAN_POINT('',(0.5,-15.,-13.772154390971));
#388=CARTESIAN_POINT('',(0.5,-15.,-13.772154390971));
#389=CARTESIAN_POINT('',(0.5,-5.,-15.));
#390=CARTESIAN_POINT('',(0.5,-5.,-15.));
#391=CARTESIAN_POINT('',(0.5,16.,-15.));
#392=CARTESIAN_POINT('',(0.5,16.,-15.));
#393=CARTESIAN_POINT('',(0.5,26.,-13.772154390971));
#394=CARTESIAN_POINT('',(0.5,26.,-13.772154390971));
#395=CARTESIAN_POINT('',(0.5,26.,13.772154390971));
#396=CARTESIAN_POINT('',(0.5,26.,13.772154390971));
#397=CARTESIAN_POINT('',(0.5,-2.64274279543342E-16,1.48535697630514E-14));
#398=CARTESIAN_POINT('',(0.5,11.0739559327279,1.3));
#399=CARTESIAN_POINT('',(0.5,11.0739559327279,-1.3));
#400=CARTESIAN_POINT('',(0.5,12.35,1.3));
#401=CARTESIAN_POINT('',(0.5,12.35,1.3));
#402=CARTESIAN_POINT('',(0.5,12.35,-1.3));
#403=CARTESIAN_POINT('',(0.5,12.35,-1.3));
#404=CARTESIAN_POINT('',(0.5,11.0739559327279,-1.3));
#405=CARTESIAN_POINT('',(0.,0.,0.));
#406=CARTESIAN_POINT('',(0.,16.,15.));
#407=CARTESIAN_POINT('',(0.,16.,15.));
#408=CARTESIAN_POINT('',(0.,-5.,15.));
#409=CARTESIAN_POINT('',(0.,26.,13.772154390971));
#410=CARTESIAN_POINT('',(0.,26.,13.772154390971));
#411=CARTESIAN_POINT('',(0.,26.,-13.772154390971));
#412=CARTESIAN_POINT('',(0.,26.,-13.772154390971));
#413=CARTESIAN_POINT('',(0.,16.,-15.));
#414=CARTESIAN_POINT('',(0.,16.,-15.));
#415=CARTESIAN_POINT('',(0.,-5.,-15.));
#416=CARTESIAN_POINT('',(0.,-5.,-15.));
#417=CARTESIAN_POINT('',(0.,-15.,-13.772154390971));
#418=CARTESIAN_POINT('',(0.,-15.,-13.772154390971));
#419=CARTESIAN_POINT('',(0.,-15.,13.772154390971));
#420=CARTESIAN_POINT('',(0.,-15.,13.772154390971));
#421=CARTESIAN_POINT('',(0.,-5.,15.));
#422=CARTESIAN_POINT('',(0.,12.35,1.3));
#423=CARTESIAN_POINT('',(0.,12.35,1.3));
#424=CARTESIAN_POINT('',(0.,11.0739559327279,1.3));
#425=CARTESIAN_POINT('',(0.,-2.64274279543342E-16,1.48535697630514E-14));
#426=CARTESIAN_POINT('',(0.,11.0739559327279,-1.3));
#427=CARTESIAN_POINT('',(0.,11.0739559327279,-1.3));
#428=CARTESIAN_POINT('',(0.,12.35,-1.3));
#429=CARTESIAN_POINT('',(0.,12.35,-1.3));
#430=CARTESIAN_POINT('',(0.5,16.,15.));
#431=CARTESIAN_POINT('',(0.5,-5.,15.));
#432=CARTESIAN_POINT('',(0.5,16.,15.));
#433=CARTESIAN_POINT('',(0.5,-5.,15.));
#434=CARTESIAN_POINT('',(0.5,-15.,13.772154390971));
#435=CARTESIAN_POINT('',(0.5,-15.,13.772154390971));
#436=CARTESIAN_POINT('',(0.5,-15.,-13.772154390971));
#437=CARTESIAN_POINT('',(0.5,-15.,-13.772154390971));
#438=CARTESIAN_POINT('',(0.5,-5.,-15.));
#439=CARTESIAN_POINT('',(0.5,-5.,-15.));
#440=CARTESIAN_POINT('',(0.5,16.,-15.));
#441=CARTESIAN_POINT('',(0.5,16.,-15.));
#442=CARTESIAN_POINT('',(0.5,26.,-13.772154390971));
#443=CARTESIAN_POINT('',(0.5,26.,-13.772154390971));
#444=CARTESIAN_POINT('',(0.5,26.,13.772154390971));
#445=CARTESIAN_POINT('',(0.5,26.,13.772154390971));
#446=CARTESIAN_POINT('',(0.5,12.35,1.3));
#447=CARTESIAN_POINT('',(0.5,12.35,1.3));
#448=CARTESIAN_POINT('',(0.5,11.0739559327279,1.3));
#449=CARTESIAN_POINT('',(0.5,-2.64274279543342E-16,1.48535697630514E-14));
#450=CARTESIAN_POINT('',(0.5,11.0739559327279,-1.3));
#451=CARTESIAN_POINT('',(0.5,11.0739559327279,-1.3));
#452=CARTESIAN_POINT('',(0.5,12.35,-1.3));
#453=CARTESIAN_POINT('',(0.5,12.35,-1.3));
#454=MECHANICAL_DESIGN_GEOMETRIC_PRESENTATION_REPRESENTATION('',(#283),
#455);
#455=(
GEOMETRIC_REPRESENTATION_CONTEXT(3)
GLOBAL_UNCERTAINTY_ASSIGNED_CONTEXT((#456))
GLOBAL_UNIT_ASSIGNED_CONTEXT((#459,#458,#457))
REPRESENTATION_CONTEXT('4588 BZ-1-22','TOP_LEVEL_ASSEMBLY_PART')
);
#456=UNCERTAINTY_MEASURE_WITH_UNIT(LENGTH_MEASURE(0.005),#459,
'DISTANCE_ACCURACY_VALUE','Maximum Tolerance applied to model');
#457=(
NAMED_UNIT(*)
SI_UNIT($,.STERADIAN.)
SOLID_ANGLE_UNIT()
);
#458=(
NAMED_UNIT(*)
PLANE_ANGLE_UNIT()
SI_UNIT($,.RADIAN.)
);
#459=(
LENGTH_UNIT()
NAMED_UNIT(*)
SI_UNIT(.MILLI.,.METRE.)
);
#460=PRODUCT_DEFINITION_SHAPE('','',#461);
#461=PRODUCT_DEFINITION('','',#463,#462);
#462=PRODUCT_DEFINITION_CONTEXT('',#469,'design');
#463=PRODUCT_DEFINITION_FORMATION_WITH_SPECIFIED_SOURCE('','',#465,
 .NOT_KNOWN.);
#464=PRODUCT_RELATED_PRODUCT_CATEGORY('','',(#465));
#465=PRODUCT('4588 BZ-1-22','4588 BZ-1-22','4588 BZ-1-22',(#467));
#466=PRODUCT_CATEGORY('','');
#467=PRODUCT_CONTEXT('',#469,'mechanical');
#468=APPLICATION_PROTOCOL_DEFINITION('international standard',
'automotive_design',2010,#469);
#469=APPLICATION_CONTEXT(
'core data for automotive mechanical design processes');
ENDSEC;
END-ISO-10303-21;
