ISO-10303-21;
HEADER;
/* Generated by software containing ST-Developer
 * from STEP Tools, Inc. (www.steptools.com) 
 */
/* OPTION: using custom renumber hook */

FILE_DESCRIPTION(
/* description */ ('STEP AP214'),
/* implementation_level */ '2;1');

FILE_NAME(
/* name */ '3660_K-3-M5',
/* time_stamp */ '2024-08-28T07:36:05+02:00',
/* author */ ('License CC BY-ND 4.0'),
/* organization */ ('CADENAS'),
/* preprocessor_version */ 'ST-DEVELOPER v19.3',
/* originating_system */ 'PARTsolutions',
/* authorisation */ '  ');

FILE_SCHEMA (('AUTOMOTIVE_DESIGN {1 0 10303 214 3 1 1}'));
ENDSEC;

DATA;
#10=PROPERTY_DEFINITION_REPRESENTATION(#14,#12);
#11=PROPERTY_DEFINITION_REPRESENTATION(#15,#13);
#12=REPRESENTATION('',(#16),#657);
#13=REPRESENTATION('',(#17),#657);
#14=PROPERTY_DEFINITION('pmi validation property','',#662);
#15=PROPERTY_DEFINITION('pmi validation property','',#662);
#16=VALUE_REPRESENTATION_ITEM('number of annotations',COUNT_MEASURE(0.));
#17=VALUE_REPRESENTATION_ITEM('number of views',COUNT_MEASURE(0.));
#18=SHAPE_REPRESENTATION_RELATIONSHIP('','',#386,#19);
#19=ADVANCED_BREP_SHAPE_REPRESENTATION('',(#384),#657);
#20=VERTEX_LOOP('',#194);
#21=CONICAL_SURFACE('',#409,2.067,0.78539816339745);
#22=CONICAL_SURFACE('',#414,2.067,0.785398163397452);
#23=CONICAL_SURFACE('',#415,1.5,0.785398163397448);
#24=CONICAL_SURFACE('',#420,1.5,0.785398163397449);
#25=CONICAL_SURFACE('',#425,0.,1.39201160567254);
#26=CONICAL_SURFACE('',#431,6.,0.422853926132941);
#27=CONICAL_SURFACE('',#439,3.96,0.276908839317759);
#28=CYLINDRICAL_SURFACE('',#403,2.15);
#29=CYLINDRICAL_SURFACE('',#404,2.15);
#30=CYLINDRICAL_SURFACE('',#407,2.067);
#31=CYLINDRICAL_SURFACE('',#412,2.067);
#32=CYLINDRICAL_SURFACE('',#417,1.2295);
#33=CYLINDRICAL_SURFACE('',#422,1.2295);
#34=CYLINDRICAL_SURFACE('',#427,7.);
#35=CYLINDRICAL_SURFACE('',#435,2.25);
#36=LINE('',#562,#48);
#37=LINE('',#565,#49);
#38=LINE('',#567,#50);
#39=LINE('',#569,#51);
#40=LINE('',#575,#52);
#41=LINE('',#577,#53);
#42=LINE('',#579,#54);
#43=LINE('',#581,#55);
#44=LINE('',#583,#56);
#45=LINE('',#585,#57);
#46=LINE('',#591,#58);
#47=LINE('',#592,#59);
#48=VECTOR('',#446,1000.);
#49=VECTOR('',#447,1000.);
#50=VECTOR('',#448,1000.);
#51=VECTOR('',#449,1000.);
#52=VECTOR('',#456,1000.);
#53=VECTOR('',#457,1000.);
#54=VECTOR('',#458,1000.);
#55=VECTOR('',#461,1000.);
#56=VECTOR('',#462,1000.);
#57=VECTOR('',#463,1000.);
#58=VECTOR('',#470,1000.);
#59=VECTOR('',#471,1000.);
#60=ORIENTED_EDGE('',*,*,#132,.F.);
#61=ORIENTED_EDGE('',*,*,#133,.T.);
#62=ORIENTED_EDGE('',*,*,#134,.F.);
#63=ORIENTED_EDGE('',*,*,#135,.F.);
#64=ORIENTED_EDGE('',*,*,#136,.T.);
#65=ORIENTED_EDGE('',*,*,#137,.T.);
#66=ORIENTED_EDGE('',*,*,#138,.T.);
#67=ORIENTED_EDGE('',*,*,#139,.T.);
#68=ORIENTED_EDGE('',*,*,#140,.F.);
#69=ORIENTED_EDGE('',*,*,#141,.F.);
#70=ORIENTED_EDGE('',*,*,#134,.T.);
#71=ORIENTED_EDGE('',*,*,#142,.T.);
#72=ORIENTED_EDGE('',*,*,#143,.F.);
#73=ORIENTED_EDGE('',*,*,#144,.F.);
#74=ORIENTED_EDGE('',*,*,#140,.T.);
#75=ORIENTED_EDGE('',*,*,#145,.F.);
#76=ORIENTED_EDGE('',*,*,#146,.F.);
#77=ORIENTED_EDGE('',*,*,#147,.T.);
#78=ORIENTED_EDGE('',*,*,#136,.F.);
#79=ORIENTED_EDGE('',*,*,#148,.F.);
#80=ORIENTED_EDGE('',*,*,#143,.T.);
#81=ORIENTED_EDGE('',*,*,#149,.T.);
#82=ORIENTED_EDGE('',*,*,#150,.F.);
#83=ORIENTED_EDGE('',*,*,#135,.T.);
#84=ORIENTED_EDGE('',*,*,#141,.T.);
#85=ORIENTED_EDGE('',*,*,#144,.T.);
#86=ORIENTED_EDGE('',*,*,#148,.T.);
#87=ORIENTED_EDGE('',*,*,#151,.F.);
#88=ORIENTED_EDGE('',*,*,#152,.T.);
#89=ORIENTED_EDGE('',*,*,#133,.F.);
#90=ORIENTED_EDGE('',*,*,#147,.F.);
#91=ORIENTED_EDGE('',*,*,#142,.F.);
#92=ORIENTED_EDGE('',*,*,#139,.F.);
#93=ORIENTED_EDGE('',*,*,#150,.T.);
#94=ORIENTED_EDGE('',*,*,#152,.F.);
#95=ORIENTED_EDGE('',*,*,#151,.T.);
#96=ORIENTED_EDGE('',*,*,#149,.F.);
#97=ORIENTED_EDGE('',*,*,#153,.T.);
#98=ORIENTED_EDGE('',*,*,#154,.T.);
#99=ORIENTED_EDGE('',*,*,#153,.F.);
#100=ORIENTED_EDGE('',*,*,#146,.T.);
#101=ORIENTED_EDGE('',*,*,#154,.F.);
#102=ORIENTED_EDGE('',*,*,#155,.T.);
#103=ORIENTED_EDGE('',*,*,#156,.T.);
#104=ORIENTED_EDGE('',*,*,#155,.F.);
#105=ORIENTED_EDGE('',*,*,#145,.T.);
#106=ORIENTED_EDGE('',*,*,#156,.F.);
#107=ORIENTED_EDGE('',*,*,#157,.T.);
#108=ORIENTED_EDGE('',*,*,#138,.F.);
#109=ORIENTED_EDGE('',*,*,#158,.T.);
#110=ORIENTED_EDGE('',*,*,#157,.F.);
#111=ORIENTED_EDGE('',*,*,#158,.F.);
#112=ORIENTED_EDGE('',*,*,#159,.T.);
#113=ORIENTED_EDGE('',*,*,#137,.F.);
#114=ORIENTED_EDGE('',*,*,#160,.T.);
#115=ORIENTED_EDGE('',*,*,#159,.F.);
#116=ORIENTED_EDGE('',*,*,#160,.F.);
#117=ORIENTED_EDGE('',*,*,#161,.F.);
#118=ORIENTED_EDGE('',*,*,#162,.F.);
#119=ORIENTED_EDGE('',*,*,#161,.T.);
#120=ORIENTED_EDGE('',*,*,#163,.F.);
#121=ORIENTED_EDGE('',*,*,#162,.T.);
#122=ORIENTED_EDGE('',*,*,#164,.F.);
#123=ORIENTED_EDGE('',*,*,#163,.T.);
#124=ORIENTED_EDGE('',*,*,#165,.F.);
#125=ORIENTED_EDGE('',*,*,#164,.T.);
#126=ORIENTED_EDGE('',*,*,#166,.F.);
#127=ORIENTED_EDGE('',*,*,#165,.T.);
#128=ORIENTED_EDGE('',*,*,#167,.F.);
#129=ORIENTED_EDGE('',*,*,#166,.T.);
#130=ORIENTED_EDGE('',*,*,#132,.T.);
#131=ORIENTED_EDGE('',*,*,#167,.T.);
#132=EDGE_CURVE('',#168,#168,#201,.F.);
#133=EDGE_CURVE('',#169,#170,#36,.T.);
#134=EDGE_CURVE('',#171,#170,#37,.T.);
#135=EDGE_CURVE('',#172,#171,#38,.T.);
#136=EDGE_CURVE('',#172,#169,#39,.T.);
#137=EDGE_CURVE('',#173,#173,#202,.T.);
#138=EDGE_CURVE('',#174,#174,#203,.T.);
#139=EDGE_CURVE('',#170,#175,#40,.T.);
#140=EDGE_CURVE('',#176,#175,#41,.T.);
#141=EDGE_CURVE('',#171,#176,#42,.T.);
#142=EDGE_CURVE('',#175,#177,#43,.T.);
#143=EDGE_CURVE('',#178,#177,#44,.T.);
#144=EDGE_CURVE('',#176,#178,#45,.T.);
#145=EDGE_CURVE('',#179,#179,#204,.T.);
#146=EDGE_CURVE('',#180,#180,#205,.T.);
#147=EDGE_CURVE('',#177,#169,#46,.T.);
#148=EDGE_CURVE('',#178,#172,#47,.T.);
#149=EDGE_CURVE('',#181,#181,#206,.T.);
#150=EDGE_CURVE('',#182,#182,#207,.T.);
#151=EDGE_CURVE('',#183,#183,#208,.T.);
#152=EDGE_CURVE('',#184,#184,#209,.T.);
#153=EDGE_CURVE('',#185,#185,#210,.T.);
#154=EDGE_CURVE('',#186,#186,#211,.T.);
#155=EDGE_CURVE('',#187,#187,#212,.T.);
#156=EDGE_CURVE('',#188,#188,#213,.T.);
#157=EDGE_CURVE('',#189,#189,#214,.T.);
#158=EDGE_CURVE('',#190,#190,#215,.T.);
#159=EDGE_CURVE('',#191,#191,#216,.T.);
#160=EDGE_CURVE('',#192,#192,#217,.T.);
#161=EDGE_CURVE('',#193,#193,#218,.T.);
#162=EDGE_CURVE('',#195,#195,#219,.T.);
#163=EDGE_CURVE('',#196,#196,#220,.T.);
#164=EDGE_CURVE('',#197,#197,#221,.T.);
#165=EDGE_CURVE('',#198,#198,#222,.T.);
#166=EDGE_CURVE('',#199,#199,#223,.T.);
#167=EDGE_CURVE('',#200,#200,#224,.T.);
#168=VERTEX_POINT('',#561);
#169=VERTEX_POINT('',#563);
#170=VERTEX_POINT('',#564);
#171=VERTEX_POINT('',#566);
#172=VERTEX_POINT('',#568);
#173=VERTEX_POINT('',#572);
#174=VERTEX_POINT('',#574);
#175=VERTEX_POINT('',#576);
#176=VERTEX_POINT('',#578);
#177=VERTEX_POINT('',#582);
#178=VERTEX_POINT('',#584);
#179=VERTEX_POINT('',#588);
#180=VERTEX_POINT('',#590);
#181=VERTEX_POINT('',#595);
#182=VERTEX_POINT('',#597);
#183=VERTEX_POINT('',#600);
#184=VERTEX_POINT('',#602);
#185=VERTEX_POINT('',#607);
#186=VERTEX_POINT('',#610);
#187=VERTEX_POINT('',#614);
#188=VERTEX_POINT('',#617);
#189=VERTEX_POINT('',#621);
#190=VERTEX_POINT('',#624);
#191=VERTEX_POINT('',#628);
#192=VERTEX_POINT('',#631);
#193=VERTEX_POINT('',#635);
#194=VERTEX_POINT('',#636);
#195=VERTEX_POINT('',#639);
#196=VERTEX_POINT('',#642);
#197=VERTEX_POINT('',#645);
#198=VERTEX_POINT('',#648);
#199=VERTEX_POINT('',#651);
#200=VERTEX_POINT('',#654);
#201=CIRCLE('',#389,4.5);
#202=CIRCLE('',#391,1.5);
#203=CIRCLE('',#392,1.5);
#204=CIRCLE('',#395,2.5);
#205=CIRCLE('',#396,2.5);
#206=CIRCLE('',#398,2.15);
#207=CIRCLE('',#399,2.15);
#208=CIRCLE('',#401,2.15);
#209=CIRCLE('',#402,2.15);
#210=CIRCLE('',#406,2.067);
#211=CIRCLE('',#408,2.067);
#212=CIRCLE('',#411,2.067);
#213=CIRCLE('',#413,2.067);
#214=CIRCLE('',#416,1.2295);
#215=CIRCLE('',#418,1.2295);
#216=CIRCLE('',#421,1.2295);
#217=CIRCLE('',#423,1.2295);
#218=CIRCLE('',#426,7.);
#219=CIRCLE('',#428,7.);
#220=CIRCLE('',#430,6.);
#221=CIRCLE('',#432,3.75);
#222=CIRCLE('',#434,2.25);
#223=CIRCLE('',#436,2.25);
#224=CIRCLE('',#438,3.96);
#225=EDGE_LOOP('',(#60));
#226=EDGE_LOOP('',(#61,#62,#63,#64));
#227=EDGE_LOOP('',(#65));
#228=EDGE_LOOP('',(#66));
#229=EDGE_LOOP('',(#67,#68,#69,#70));
#230=EDGE_LOOP('',(#71,#72,#73,#74));
#231=EDGE_LOOP('',(#75));
#232=EDGE_LOOP('',(#76));
#233=EDGE_LOOP('',(#77,#78,#79,#80));
#234=EDGE_LOOP('',(#81));
#235=EDGE_LOOP('',(#82));
#236=EDGE_LOOP('',(#83,#84,#85,#86));
#237=EDGE_LOOP('',(#87));
#238=EDGE_LOOP('',(#88));
#239=EDGE_LOOP('',(#89,#90,#91,#92));
#240=EDGE_LOOP('',(#93));
#241=EDGE_LOOP('',(#94));
#242=EDGE_LOOP('',(#95));
#243=EDGE_LOOP('',(#96));
#244=EDGE_LOOP('',(#97));
#245=EDGE_LOOP('',(#98));
#246=EDGE_LOOP('',(#99));
#247=EDGE_LOOP('',(#100));
#248=EDGE_LOOP('',(#101));
#249=EDGE_LOOP('',(#102));
#250=EDGE_LOOP('',(#103));
#251=EDGE_LOOP('',(#104));
#252=EDGE_LOOP('',(#105));
#253=EDGE_LOOP('',(#106));
#254=EDGE_LOOP('',(#107));
#255=EDGE_LOOP('',(#108));
#256=EDGE_LOOP('',(#109));
#257=EDGE_LOOP('',(#110));
#258=EDGE_LOOP('',(#111));
#259=EDGE_LOOP('',(#112));
#260=EDGE_LOOP('',(#113));
#261=EDGE_LOOP('',(#114));
#262=EDGE_LOOP('',(#115));
#263=EDGE_LOOP('',(#116));
#264=EDGE_LOOP('',(#117));
#265=EDGE_LOOP('',(#118));
#266=EDGE_LOOP('',(#119));
#267=EDGE_LOOP('',(#120));
#268=EDGE_LOOP('',(#121));
#269=EDGE_LOOP('',(#122));
#270=EDGE_LOOP('',(#123));
#271=EDGE_LOOP('',(#124));
#272=EDGE_LOOP('',(#125));
#273=EDGE_LOOP('',(#126));
#274=EDGE_LOOP('',(#127));
#275=EDGE_LOOP('',(#128));
#276=EDGE_LOOP('',(#129));
#277=EDGE_LOOP('',(#130));
#278=EDGE_LOOP('',(#131));
#279=FACE_BOUND('',#225,.T.);
#280=FACE_BOUND('',#226,.T.);
#281=FACE_BOUND('',#227,.T.);
#282=FACE_BOUND('',#228,.T.);
#283=FACE_BOUND('',#229,.T.);
#284=FACE_BOUND('',#230,.T.);
#285=FACE_BOUND('',#231,.T.);
#286=FACE_BOUND('',#232,.T.);
#287=FACE_BOUND('',#233,.T.);
#288=FACE_BOUND('',#234,.T.);
#289=FACE_BOUND('',#235,.T.);
#290=FACE_BOUND('',#236,.T.);
#291=FACE_BOUND('',#237,.T.);
#292=FACE_BOUND('',#238,.T.);
#293=FACE_BOUND('',#239,.T.);
#294=FACE_BOUND('',#240,.T.);
#295=FACE_BOUND('',#241,.T.);
#296=FACE_BOUND('',#242,.T.);
#297=FACE_BOUND('',#243,.T.);
#298=FACE_BOUND('',#244,.T.);
#299=FACE_BOUND('',#245,.T.);
#300=FACE_BOUND('',#246,.T.);
#301=FACE_BOUND('',#247,.T.);
#302=FACE_BOUND('',#248,.T.);
#303=FACE_BOUND('',#249,.T.);
#304=FACE_BOUND('',#250,.T.);
#305=FACE_BOUND('',#251,.T.);
#306=FACE_BOUND('',#252,.T.);
#307=FACE_BOUND('',#253,.T.);
#308=FACE_BOUND('',#254,.T.);
#309=FACE_BOUND('',#255,.T.);
#310=FACE_BOUND('',#256,.T.);
#311=FACE_BOUND('',#257,.T.);
#312=FACE_BOUND('',#258,.T.);
#313=FACE_BOUND('',#259,.T.);
#314=FACE_BOUND('',#260,.T.);
#315=FACE_BOUND('',#261,.T.);
#316=FACE_BOUND('',#262,.T.);
#317=FACE_BOUND('',#263,.T.);
#318=FACE_BOUND('',#264,.T.);
#319=FACE_BOUND('',#20,.T.);
#320=FACE_BOUND('',#265,.T.);
#321=FACE_BOUND('',#266,.T.);
#322=FACE_BOUND('',#267,.T.);
#323=FACE_BOUND('',#268,.T.);
#324=FACE_BOUND('',#269,.T.);
#325=FACE_BOUND('',#270,.T.);
#326=FACE_BOUND('',#271,.T.);
#327=FACE_BOUND('',#272,.T.);
#328=FACE_BOUND('',#273,.T.);
#329=FACE_BOUND('',#274,.T.);
#330=FACE_BOUND('',#275,.T.);
#331=FACE_BOUND('',#276,.T.);
#332=FACE_BOUND('',#277,.T.);
#333=FACE_BOUND('',#278,.T.);
#334=PLANE('',#388);
#335=PLANE('',#390);
#336=PLANE('',#393);
#337=PLANE('',#394);
#338=PLANE('',#397);
#339=PLANE('',#400);
#340=PLANE('',#405);
#341=PLANE('',#410);
#342=PLANE('',#419);
#343=PLANE('',#424);
#344=PLANE('',#429);
#345=PLANE('',#433);
#346=PLANE('',#437);
#347=ADVANCED_FACE('',(#279,#280),#334,.F.);
#348=ADVANCED_FACE('',(#281,#282,#283),#335,.F.);
#349=ADVANCED_FACE('',(#284),#336,.F.);
#350=ADVANCED_FACE('',(#285,#286,#287),#337,.F.);
#351=ADVANCED_FACE('',(#288,#289,#290),#338,.T.);
#352=ADVANCED_FACE('',(#291,#292,#293),#339,.F.);
#353=ADVANCED_FACE('',(#294,#295),#28,.F.);
#354=ADVANCED_FACE('',(#296,#297),#29,.F.);
#355=ADVANCED_FACE('',(#298),#340,.T.);
#356=ADVANCED_FACE('',(#299,#300),#30,.F.);
#357=ADVANCED_FACE('',(#301,#302),#21,.F.);
#358=ADVANCED_FACE('',(#303),#341,.T.);
#359=ADVANCED_FACE('',(#304,#305),#31,.F.);
#360=ADVANCED_FACE('',(#306,#307),#22,.F.);
#361=ADVANCED_FACE('',(#308,#309),#23,.F.);
#362=ADVANCED_FACE('',(#310,#311),#32,.F.);
#363=ADVANCED_FACE('',(#312),#342,.T.);
#364=ADVANCED_FACE('',(#313,#314),#24,.F.);
#365=ADVANCED_FACE('',(#315,#316),#33,.F.);
#366=ADVANCED_FACE('',(#317),#343,.T.);
#367=ADVANCED_FACE('',(#318,#319),#25,.T.);
#368=ADVANCED_FACE('',(#320,#321),#34,.T.);
#369=ADVANCED_FACE('',(#322,#323),#344,.F.);
#370=ADVANCED_FACE('',(#324,#325),#26,.T.);
#371=ADVANCED_FACE('',(#326,#327),#345,.F.);
#372=ADVANCED_FACE('',(#328,#329),#35,.T.);
#373=ADVANCED_FACE('',(#330,#331),#346,.F.);
#374=ADVANCED_FACE('',(#332,#333),#27,.T.);
#375=CLOSED_SHELL('',(#347,#348,#349,#350,#351,#352,#353,#354,#355,#356,
#357,#358,#359,#360,#361,#362,#363,#364,#365,#366,#367,#368,#369,#370,#371,
#372,#373,#374));
#376=STYLED_ITEM('',(#377),#384);
#377=PRESENTATION_STYLE_ASSIGNMENT((#378));
#378=SURFACE_STYLE_USAGE(.BOTH.,#379);
#379=SURFACE_SIDE_STYLE('',(#380));
#380=SURFACE_STYLE_FILL_AREA(#381);
#381=FILL_AREA_STYLE('',(#382));
#382=FILL_AREA_STYLE_COLOUR('',#383);
#383=COLOUR_RGB('',0.689999997615814,0.689999997615814,0.689999997615814);
#384=MANIFOLD_SOLID_BREP('3660 K-3-M5---(0)',#375);
#385=SHAPE_DEFINITION_REPRESENTATION(#662,#386);
#386=SHAPE_REPRESENTATION('3660 K-3-M5---(0)',(#387),#657);
#387=AXIS2_PLACEMENT_3D('',#558,#440,#441);
#388=AXIS2_PLACEMENT_3D('',#559,#442,#443);
#389=AXIS2_PLACEMENT_3D('',#560,#444,#445);
#390=AXIS2_PLACEMENT_3D('',#570,#450,#451);
#391=AXIS2_PLACEMENT_3D('',#571,#452,#453);
#392=AXIS2_PLACEMENT_3D('',#573,#454,#455);
#393=AXIS2_PLACEMENT_3D('',#580,#459,#460);
#394=AXIS2_PLACEMENT_3D('',#586,#464,#465);
#395=AXIS2_PLACEMENT_3D('',#587,#466,#467);
#396=AXIS2_PLACEMENT_3D('',#589,#468,#469);
#397=AXIS2_PLACEMENT_3D('',#593,#472,#473);
#398=AXIS2_PLACEMENT_3D('',#594,#474,#475);
#399=AXIS2_PLACEMENT_3D('',#596,#476,#477);
#400=AXIS2_PLACEMENT_3D('',#598,#478,#479);
#401=AXIS2_PLACEMENT_3D('',#599,#480,#481);
#402=AXIS2_PLACEMENT_3D('',#601,#482,#483);
#403=AXIS2_PLACEMENT_3D('',#603,#484,#485);
#404=AXIS2_PLACEMENT_3D('',#604,#486,#487);
#405=AXIS2_PLACEMENT_3D('',#605,#488,#489);
#406=AXIS2_PLACEMENT_3D('',#606,#490,#491);
#407=AXIS2_PLACEMENT_3D('',#608,#492,#493);
#408=AXIS2_PLACEMENT_3D('',#609,#494,#495);
#409=AXIS2_PLACEMENT_3D('',#611,#496,#497);
#410=AXIS2_PLACEMENT_3D('',#612,#498,#499);
#411=AXIS2_PLACEMENT_3D('',#613,#500,#501);
#412=AXIS2_PLACEMENT_3D('',#615,#502,#503);
#413=AXIS2_PLACEMENT_3D('',#616,#504,#505);
#414=AXIS2_PLACEMENT_3D('',#618,#506,#507);
#415=AXIS2_PLACEMENT_3D('',#619,#508,#509);
#416=AXIS2_PLACEMENT_3D('',#620,#510,#511);
#417=AXIS2_PLACEMENT_3D('',#622,#512,#513);
#418=AXIS2_PLACEMENT_3D('',#623,#514,#515);
#419=AXIS2_PLACEMENT_3D('',#625,#516,#517);
#420=AXIS2_PLACEMENT_3D('',#626,#518,#519);
#421=AXIS2_PLACEMENT_3D('',#627,#520,#521);
#422=AXIS2_PLACEMENT_3D('',#629,#522,#523);
#423=AXIS2_PLACEMENT_3D('',#630,#524,#525);
#424=AXIS2_PLACEMENT_3D('',#632,#526,#527);
#425=AXIS2_PLACEMENT_3D('',#633,#528,#529);
#426=AXIS2_PLACEMENT_3D('',#634,#530,#531);
#427=AXIS2_PLACEMENT_3D('',#637,#532,#533);
#428=AXIS2_PLACEMENT_3D('',#638,#534,#535);
#429=AXIS2_PLACEMENT_3D('',#640,#536,#537);
#430=AXIS2_PLACEMENT_3D('',#641,#538,#539);
#431=AXIS2_PLACEMENT_3D('',#643,#540,#541);
#432=AXIS2_PLACEMENT_3D('',#644,#542,#543);
#433=AXIS2_PLACEMENT_3D('',#646,#544,#545);
#434=AXIS2_PLACEMENT_3D('',#647,#546,#547);
#435=AXIS2_PLACEMENT_3D('',#649,#548,#549);
#436=AXIS2_PLACEMENT_3D('',#650,#550,#551);
#437=AXIS2_PLACEMENT_3D('',#652,#552,#553);
#438=AXIS2_PLACEMENT_3D('',#653,#554,#555);
#439=AXIS2_PLACEMENT_3D('',#655,#556,#557);
#440=DIRECTION('',(0.,0.,1.));
#441=DIRECTION('',(1.,0.,0.));
#442=DIRECTION('',(0.,-1.,0.));
#443=DIRECTION('',(0.,0.,-1.));
#444=DIRECTION('',(0.,-1.,0.));
#445=DIRECTION('',(0.,0.,-1.));
#446=DIRECTION('',(-1.,0.,0.));
#447=DIRECTION('',(0.,0.,-1.));
#448=DIRECTION('',(-1.,0.,0.));
#449=DIRECTION('',(0.,0.,-1.));
#450=DIRECTION('',(1.,0.,0.));
#451=DIRECTION('',(0.,0.,-1.));
#452=DIRECTION('',(1.,0.,0.));
#453=DIRECTION('',(0.,0.,-1.));
#454=DIRECTION('',(1.,0.,0.));
#455=DIRECTION('',(0.,0.,-1.));
#456=DIRECTION('',(0.,-1.,0.));
#457=DIRECTION('',(0.,0.,-1.));
#458=DIRECTION('',(0.,-1.,0.));
#459=DIRECTION('',(0.,1.,0.));
#460=DIRECTION('',(0.,0.,1.));
#461=DIRECTION('',(1.,0.,0.));
#462=DIRECTION('',(0.,0.,-1.));
#463=DIRECTION('',(1.,0.,0.));
#464=DIRECTION('',(-1.,0.,0.));
#465=DIRECTION('',(0.,0.,1.));
#466=DIRECTION('',(1.,0.,0.));
#467=DIRECTION('',(0.,0.,-1.));
#468=DIRECTION('',(1.,0.,0.));
#469=DIRECTION('',(0.,0.,-1.));
#470=DIRECTION('',(0.,1.,0.));
#471=DIRECTION('',(0.,1.,0.));
#472=DIRECTION('',(0.,0.,1.));
#473=DIRECTION('',(1.,0.,0.));
#474=DIRECTION('',(0.,0.,-1.));
#475=DIRECTION('',(-1.,0.,0.));
#476=DIRECTION('',(0.,0.,1.));
#477=DIRECTION('',(1.,0.,0.));
#478=DIRECTION('',(0.,0.,1.));
#479=DIRECTION('',(1.,0.,0.));
#480=DIRECTION('',(0.,0.,-1.));
#481=DIRECTION('',(-1.,0.,0.));
#482=DIRECTION('',(0.,0.,1.));
#483=DIRECTION('',(1.,0.,0.));
#484=DIRECTION('',(0.,0.,1.));
#485=DIRECTION('',(1.,0.,0.));
#486=DIRECTION('',(0.,0.,-1.));
#487=DIRECTION('',(-1.,0.,0.));
#488=DIRECTION('',(1.,0.,0.));
#489=DIRECTION('',(0.,0.,-1.));
#490=DIRECTION('',(1.,0.,0.));
#491=DIRECTION('',(0.,0.,-1.));
#492=DIRECTION('',(1.,0.,0.));
#493=DIRECTION('',(0.,0.,-1.));
#494=DIRECTION('',(1.,0.,0.));
#495=DIRECTION('',(0.,0.,-1.));
#496=DIRECTION('',(1.,0.,0.));
#497=DIRECTION('',(0.,0.,-1.));
#498=DIRECTION('',(1.,0.,0.));
#499=DIRECTION('',(0.,0.,-1.));
#500=DIRECTION('',(1.,0.,0.));
#501=DIRECTION('',(0.,0.,-1.));
#502=DIRECTION('',(1.,0.,0.));
#503=DIRECTION('',(0.,0.,-1.));
#504=DIRECTION('',(1.,0.,0.));
#505=DIRECTION('',(0.,0.,-1.));
#506=DIRECTION('',(1.,0.,0.));
#507=DIRECTION('',(0.,0.,-1.));
#508=DIRECTION('',(-1.,0.,0.));
#509=DIRECTION('',(0.,0.,1.));
#510=DIRECTION('',(1.,0.,0.));
#511=DIRECTION('',(0.,0.,-1.));
#512=DIRECTION('',(1.,0.,0.));
#513=DIRECTION('',(0.,0.,-1.));
#514=DIRECTION('',(1.,0.,0.));
#515=DIRECTION('',(0.,0.,-1.));
#516=DIRECTION('',(-1.,0.,0.));
#517=DIRECTION('',(0.,0.,1.));
#518=DIRECTION('',(-1.,0.,0.));
#519=DIRECTION('',(0.,0.,1.));
#520=DIRECTION('',(1.,0.,0.));
#521=DIRECTION('',(0.,0.,-1.));
#522=DIRECTION('',(1.,0.,0.));
#523=DIRECTION('',(0.,0.,-1.));
#524=DIRECTION('',(1.,0.,0.));
#525=DIRECTION('',(0.,0.,-1.));
#526=DIRECTION('',(-1.,0.,0.));
#527=DIRECTION('',(0.,0.,1.));
#528=DIRECTION('',(0.,-1.,0.));
#529=DIRECTION('',(0.,0.,-1.));
#530=DIRECTION('',(0.,-1.,0.));
#531=DIRECTION('',(0.,0.,-1.));
#532=DIRECTION('',(0.,-1.,0.));
#533=DIRECTION('',(0.,0.,-1.));
#534=DIRECTION('',(0.,-1.,0.));
#535=DIRECTION('',(0.,0.,-1.));
#536=DIRECTION('',(0.,1.,0.));
#537=DIRECTION('',(0.,0.,1.));
#538=DIRECTION('',(0.,-1.,0.));
#539=DIRECTION('',(0.,0.,-1.));
#540=DIRECTION('',(0.,1.,0.));
#541=DIRECTION('',(0.,0.,1.));
#542=DIRECTION('',(0.,-1.,0.));
#543=DIRECTION('',(0.,0.,-1.));
#544=DIRECTION('',(0.,1.,0.));
#545=DIRECTION('',(0.,0.,1.));
#546=DIRECTION('',(0.,-1.,0.));
#547=DIRECTION('',(0.,0.,-1.));
#548=DIRECTION('',(0.,-1.,0.));
#549=DIRECTION('',(0.,0.,-1.));
#550=DIRECTION('',(0.,-1.,0.));
#551=DIRECTION('',(0.,0.,-1.));
#552=DIRECTION('',(0.,-1.,0.));
#553=DIRECTION('',(0.,0.,-1.));
#554=DIRECTION('',(0.,-1.,0.));
#555=DIRECTION('',(0.,0.,-1.));
#556=DIRECTION('',(0.,-1.,0.));
#557=DIRECTION('',(0.,0.,-1.));
#558=CARTESIAN_POINT('',(0.,0.,0.));
#559=CARTESIAN_POINT('',(10.,30.,7.5));
#560=CARTESIAN_POINT('',(0.,30.,0.));
#561=CARTESIAN_POINT('',(0.,30.,-4.5));
#562=CARTESIAN_POINT('',(10.,30.,-7.5));
#563=CARTESIAN_POINT('',(10.,30.,-7.5));
#564=CARTESIAN_POINT('',(-10.,30.,-7.5));
#565=CARTESIAN_POINT('',(-10.,30.,7.5));
#566=CARTESIAN_POINT('',(-10.,30.,7.5));
#567=CARTESIAN_POINT('',(10.,30.,7.5));
#568=CARTESIAN_POINT('',(10.,30.,7.5));
#569=CARTESIAN_POINT('',(10.,30.,7.5));
#570=CARTESIAN_POINT('',(-10.,30.,7.5));
#571=CARTESIAN_POINT('',(-10.,25.,4.));
#572=CARTESIAN_POINT('',(-10.,25.,2.5));
#573=CARTESIAN_POINT('',(-10.,25.,-4.));
#574=CARTESIAN_POINT('',(-10.,25.,-5.5));
#575=CARTESIAN_POINT('',(-10.,30.,-7.5));
#576=CARTESIAN_POINT('',(-10.,0.,-7.5));
#577=CARTESIAN_POINT('',(-10.,0.,7.5));
#578=CARTESIAN_POINT('',(-10.,0.,7.5));
#579=CARTESIAN_POINT('',(-10.,30.,7.5));
#580=CARTESIAN_POINT('',(-10.,0.,7.5));
#581=CARTESIAN_POINT('',(-10.,0.,-7.5));
#582=CARTESIAN_POINT('',(10.,0.,-7.5));
#583=CARTESIAN_POINT('',(10.,0.,7.5));
#584=CARTESIAN_POINT('',(10.,0.,7.5));
#585=CARTESIAN_POINT('',(-10.,0.,7.5));
#586=CARTESIAN_POINT('',(10.,0.,7.5));
#587=CARTESIAN_POINT('',(10.,23.,0.));
#588=CARTESIAN_POINT('',(10.,23.,-2.5));
#589=CARTESIAN_POINT('',(10.,10.,0.));
#590=CARTESIAN_POINT('',(10.,10.,-2.5));
#591=CARTESIAN_POINT('',(10.,0.,-7.5));
#592=CARTESIAN_POINT('',(10.,0.,7.5));
#593=CARTESIAN_POINT('',(0.,0.,7.5));
#594=CARTESIAN_POINT('',(-6.,17.,7.5));
#595=CARTESIAN_POINT('',(-8.15,17.,7.5));
#596=CARTESIAN_POINT('',(6.,17.,7.5));
#597=CARTESIAN_POINT('',(8.15,17.,7.5));
#598=CARTESIAN_POINT('',(0.,0.,-7.5));
#599=CARTESIAN_POINT('',(-6.,17.,-7.5));
#600=CARTESIAN_POINT('',(-8.15,17.,-7.5));
#601=CARTESIAN_POINT('',(6.,17.,-7.5));
#602=CARTESIAN_POINT('',(8.15,17.,-7.5));
#603=CARTESIAN_POINT('',(6.,17.,7.5));
#604=CARTESIAN_POINT('',(-6.,17.,-7.5));
#605=CARTESIAN_POINT('',(3.33333333333333,10.,0.));
#606=CARTESIAN_POINT('',(3.33333333333333,10.,0.));
#607=CARTESIAN_POINT('',(3.33333333333333,10.,-2.067));
#608=CARTESIAN_POINT('',(10.,10.,0.));
#609=CARTESIAN_POINT('',(9.567,10.,0.));
#610=CARTESIAN_POINT('',(9.567,10.,-2.067));
#611=CARTESIAN_POINT('',(9.567,10.,0.));
#612=CARTESIAN_POINT('',(3.33333333333333,23.,0.));
#613=CARTESIAN_POINT('',(3.33333333333333,23.,0.));
#614=CARTESIAN_POINT('',(3.33333333333333,23.,-2.067));
#615=CARTESIAN_POINT('',(10.,23.,0.));
#616=CARTESIAN_POINT('',(9.567,23.,0.));
#617=CARTESIAN_POINT('',(9.567,23.,-2.067));
#618=CARTESIAN_POINT('',(9.567,23.,0.));
#619=CARTESIAN_POINT('',(-10.,25.,-4.));
#620=CARTESIAN_POINT('',(-9.7295,25.,-4.));
#621=CARTESIAN_POINT('',(-9.7295,25.,-5.2295));
#622=CARTESIAN_POINT('',(-5.,25.,-4.));
#623=CARTESIAN_POINT('',(-5.,25.,-4.));
#624=CARTESIAN_POINT('',(-5.,25.,-5.2295));
#625=CARTESIAN_POINT('',(-5.,25.,-5.2295));
#626=CARTESIAN_POINT('',(-10.,25.,4.));
#627=CARTESIAN_POINT('',(-9.7295,25.,4.));
#628=CARTESIAN_POINT('',(-9.7295,25.,2.7705));
#629=CARTESIAN_POINT('',(-5.,25.,4.));
#630=CARTESIAN_POINT('',(-5.,25.,4.));
#631=CARTESIAN_POINT('',(-5.,25.,2.7705));
#632=CARTESIAN_POINT('',(-5.,25.,2.7705));
#633=CARTESIAN_POINT('',(0.,46.,0.));
#634=CARTESIAN_POINT('',(0.,44.735,0.));
#635=CARTESIAN_POINT('',(0.,44.735,-7.));
#636=CARTESIAN_POINT('',(0.,46.,0.));
#637=CARTESIAN_POINT('',(0.,30.,0.));
#638=CARTESIAN_POINT('',(0.,40.,0.));
#639=CARTESIAN_POINT('',(0.,40.,-7.));
#640=CARTESIAN_POINT('',(7.,40.,0.));
#641=CARTESIAN_POINT('',(0.,40.,0.));
#642=CARTESIAN_POINT('',(0.,40.,-6.));
#643=CARTESIAN_POINT('',(0.,40.,0.));
#644=CARTESIAN_POINT('',(0.,35.,0.));
#645=CARTESIAN_POINT('',(0.,35.,-3.75));
#646=CARTESIAN_POINT('',(3.75,35.,0.));
#647=CARTESIAN_POINT('',(0.,35.,0.));
#648=CARTESIAN_POINT('',(0.,35.,-2.25));
#649=CARTESIAN_POINT('',(0.,30.,0.));
#650=CARTESIAN_POINT('',(0.,31.9,0.));
#651=CARTESIAN_POINT('',(0.,31.9,-2.25));
#652=CARTESIAN_POINT('',(2.25,31.9,0.));
#653=CARTESIAN_POINT('',(0.,31.9,0.));
#654=CARTESIAN_POINT('',(0.,31.9,-3.96));
#655=CARTESIAN_POINT('',(0.,31.9,0.));
#656=MECHANICAL_DESIGN_GEOMETRIC_PRESENTATION_REPRESENTATION('',(#376),
#657);
#657=(
GEOMETRIC_REPRESENTATION_CONTEXT(3)
GLOBAL_UNCERTAINTY_ASSIGNED_CONTEXT((#658))
GLOBAL_UNIT_ASSIGNED_CONTEXT((#661,#660,#659))
REPRESENTATION_CONTEXT('3660 K-3-M5---(0)','TOP_LEVEL_ASSEMBLY_PART')
);
#658=UNCERTAINTY_MEASURE_WITH_UNIT(LENGTH_MEASURE(0.005),#661,
'DISTANCE_ACCURACY_VALUE','Maximum Tolerance applied to model');
#659=(
NAMED_UNIT(*)
SI_UNIT($,.STERADIAN.)
SOLID_ANGLE_UNIT()
);
#660=(
NAMED_UNIT(*)
PLANE_ANGLE_UNIT()
SI_UNIT($,.RADIAN.)
);
#661=(
LENGTH_UNIT()
NAMED_UNIT(*)
SI_UNIT(.MILLI.,.METRE.)
);
#662=PRODUCT_DEFINITION_SHAPE('','',#663);
#663=PRODUCT_DEFINITION('','',#665,#664);
#664=PRODUCT_DEFINITION_CONTEXT('',#671,'design');
#665=PRODUCT_DEFINITION_FORMATION_WITH_SPECIFIED_SOURCE('','',#667,
 .NOT_KNOWN.);
#666=PRODUCT_RELATED_PRODUCT_CATEGORY('','',(#667));
#667=PRODUCT('3660 K-3-M5---(0)','3660 K-3-M5---(0)',
'3660 K-3-M5---(0)',(#669));
#668=PRODUCT_CATEGORY('','');
#669=PRODUCT_CONTEXT('',#671,'mechanical');
#670=APPLICATION_PROTOCOL_DEFINITION('international standard',
'automotive_design',2010,#671);
#671=APPLICATION_CONTEXT(
'core data for automotive mechanical design processes');
ENDSEC;
END-ISO-10303-21;
