ISO-10303-21;
HEADER;
/* Generated by software containing ST-Developer
 * from STEP Tools, Inc. (www.steptools.com) 
 */
/* OPTION: using custom renumber hook */

FILE_DESCRIPTION(
/* description */ ('STEP AP214'),
/* implementation_level */ '2;1');

FILE_NAME(
/* name */ '3626_V-3-M5',
/* time_stamp */ '2024-09-10T12:19:49+02:00',
/* author */ ('License CC BY-ND 4.0'),
/* organization */ ('CADENAS'),
/* preprocessor_version */ 'ST-DEVELOPER v19.3',
/* originating_system */ 'PARTsolutions',
/* authorisation */ '  ');

FILE_SCHEMA (('AUTOMOTIVE_DESIGN {1 0 10303 214 3 1 1}'));
ENDSEC;

DATA;
#10=PROPERTY_DEFINITION_REPRESENTATION(#14,#12);
#11=PROPERTY_DEFINITION_REPRESENTATION(#15,#13);
#12=REPRESENTATION('',(#16),#581);
#13=REPRESENTATION('',(#17),#581);
#14=PROPERTY_DEFINITION('pmi validation property','',#586);
#15=PROPERTY_DEFINITION('pmi validation property','',#586);
#16=VALUE_REPRESENTATION_ITEM('number of annotations',COUNT_MEASURE(0.));
#17=VALUE_REPRESENTATION_ITEM('number of views',COUNT_MEASURE(0.));
#18=SHAPE_REPRESENTATION_RELATIONSHIP('','',#345,#19);
#19=ADVANCED_BREP_SHAPE_REPRESENTATION('',(#343),#581);
#20=VERTEX_LOOP('',#183);
#21=VERTEX_LOOP('',#186);
#22=SPHERICAL_SURFACE('',#374,4.99999999999965);
#23=CONICAL_SURFACE('',#368,2.067,0.78539816339745);
#24=CONICAL_SURFACE('',#373,2.067,0.785398163397452);
#25=CONICAL_SURFACE('',#380,3.96410161513776,0.261799387799148);
#26=CONICAL_SURFACE('',#381,1.5,0.785398163397445);
#27=CONICAL_SURFACE('',#385,1.2295,1.0471975511966);
#28=CONICAL_SURFACE('',#386,1.5,0.785398163397445);
#29=CONICAL_SURFACE('',#390,1.2295,1.0471975511966);
#30=CYLINDRICAL_SURFACE('',#362,2.15);
#31=CYLINDRICAL_SURFACE('',#363,2.15);
#32=CYLINDRICAL_SURFACE('',#366,2.067);
#33=CYLINDRICAL_SURFACE('',#371,2.067);
#34=CYLINDRICAL_SURFACE('',#376,2.25);
#35=CYLINDRICAL_SURFACE('',#383,1.2295);
#36=CYLINDRICAL_SURFACE('',#388,1.2295);
#37=LINE('',#497,#49);
#38=LINE('',#500,#50);
#39=LINE('',#502,#51);
#40=LINE('',#504,#52);
#41=LINE('',#510,#53);
#42=LINE('',#512,#54);
#43=LINE('',#514,#55);
#44=LINE('',#516,#56);
#45=LINE('',#518,#57);
#46=LINE('',#520,#58);
#47=LINE('',#526,#59);
#48=LINE('',#527,#60);
#49=VECTOR('',#397,1000.);
#50=VECTOR('',#398,1000.);
#51=VECTOR('',#399,1000.);
#52=VECTOR('',#400,1000.);
#53=VECTOR('',#407,1000.);
#54=VECTOR('',#408,1000.);
#55=VECTOR('',#409,1000.);
#56=VECTOR('',#412,1000.);
#57=VECTOR('',#413,1000.);
#58=VECTOR('',#414,1000.);
#59=VECTOR('',#421,1000.);
#60=VECTOR('',#422,1000.);
#61=ORIENTED_EDGE('',*,*,#125,.F.);
#62=ORIENTED_EDGE('',*,*,#126,.T.);
#63=ORIENTED_EDGE('',*,*,#127,.F.);
#64=ORIENTED_EDGE('',*,*,#128,.F.);
#65=ORIENTED_EDGE('',*,*,#129,.T.);
#66=ORIENTED_EDGE('',*,*,#130,.T.);
#67=ORIENTED_EDGE('',*,*,#131,.T.);
#68=ORIENTED_EDGE('',*,*,#132,.T.);
#69=ORIENTED_EDGE('',*,*,#133,.F.);
#70=ORIENTED_EDGE('',*,*,#134,.F.);
#71=ORIENTED_EDGE('',*,*,#127,.T.);
#72=ORIENTED_EDGE('',*,*,#135,.T.);
#73=ORIENTED_EDGE('',*,*,#136,.F.);
#74=ORIENTED_EDGE('',*,*,#137,.F.);
#75=ORIENTED_EDGE('',*,*,#133,.T.);
#76=ORIENTED_EDGE('',*,*,#138,.F.);
#77=ORIENTED_EDGE('',*,*,#139,.F.);
#78=ORIENTED_EDGE('',*,*,#140,.T.);
#79=ORIENTED_EDGE('',*,*,#129,.F.);
#80=ORIENTED_EDGE('',*,*,#141,.F.);
#81=ORIENTED_EDGE('',*,*,#136,.T.);
#82=ORIENTED_EDGE('',*,*,#142,.T.);
#83=ORIENTED_EDGE('',*,*,#143,.F.);
#84=ORIENTED_EDGE('',*,*,#128,.T.);
#85=ORIENTED_EDGE('',*,*,#134,.T.);
#86=ORIENTED_EDGE('',*,*,#137,.T.);
#87=ORIENTED_EDGE('',*,*,#141,.T.);
#88=ORIENTED_EDGE('',*,*,#144,.F.);
#89=ORIENTED_EDGE('',*,*,#145,.T.);
#90=ORIENTED_EDGE('',*,*,#126,.F.);
#91=ORIENTED_EDGE('',*,*,#140,.F.);
#92=ORIENTED_EDGE('',*,*,#135,.F.);
#93=ORIENTED_EDGE('',*,*,#132,.F.);
#94=ORIENTED_EDGE('',*,*,#143,.T.);
#95=ORIENTED_EDGE('',*,*,#145,.F.);
#96=ORIENTED_EDGE('',*,*,#144,.T.);
#97=ORIENTED_EDGE('',*,*,#142,.F.);
#98=ORIENTED_EDGE('',*,*,#146,.T.);
#99=ORIENTED_EDGE('',*,*,#147,.T.);
#100=ORIENTED_EDGE('',*,*,#146,.F.);
#101=ORIENTED_EDGE('',*,*,#139,.T.);
#102=ORIENTED_EDGE('',*,*,#147,.F.);
#103=ORIENTED_EDGE('',*,*,#148,.T.);
#104=ORIENTED_EDGE('',*,*,#149,.T.);
#105=ORIENTED_EDGE('',*,*,#148,.F.);
#106=ORIENTED_EDGE('',*,*,#138,.T.);
#107=ORIENTED_EDGE('',*,*,#149,.F.);
#108=ORIENTED_EDGE('',*,*,#150,.F.);
#109=ORIENTED_EDGE('',*,*,#151,.F.);
#110=ORIENTED_EDGE('',*,*,#150,.T.);
#111=ORIENTED_EDGE('',*,*,#152,.F.);
#112=ORIENTED_EDGE('',*,*,#151,.T.);
#113=ORIENTED_EDGE('',*,*,#125,.T.);
#114=ORIENTED_EDGE('',*,*,#152,.T.);
#115=ORIENTED_EDGE('',*,*,#153,.T.);
#116=ORIENTED_EDGE('',*,*,#131,.F.);
#117=ORIENTED_EDGE('',*,*,#154,.T.);
#118=ORIENTED_EDGE('',*,*,#153,.F.);
#119=ORIENTED_EDGE('',*,*,#154,.F.);
#120=ORIENTED_EDGE('',*,*,#155,.T.);
#121=ORIENTED_EDGE('',*,*,#130,.F.);
#122=ORIENTED_EDGE('',*,*,#156,.T.);
#123=ORIENTED_EDGE('',*,*,#155,.F.);
#124=ORIENTED_EDGE('',*,*,#156,.F.);
#125=EDGE_CURVE('',#157,#157,#187,.F.);
#126=EDGE_CURVE('',#158,#159,#37,.T.);
#127=EDGE_CURVE('',#160,#159,#38,.T.);
#128=EDGE_CURVE('',#161,#160,#39,.T.);
#129=EDGE_CURVE('',#161,#158,#40,.T.);
#130=EDGE_CURVE('',#162,#162,#188,.T.);
#131=EDGE_CURVE('',#163,#163,#189,.T.);
#132=EDGE_CURVE('',#159,#164,#41,.T.);
#133=EDGE_CURVE('',#165,#164,#42,.T.);
#134=EDGE_CURVE('',#160,#165,#43,.T.);
#135=EDGE_CURVE('',#164,#166,#44,.T.);
#136=EDGE_CURVE('',#167,#166,#45,.T.);
#137=EDGE_CURVE('',#165,#167,#46,.T.);
#138=EDGE_CURVE('',#168,#168,#190,.T.);
#139=EDGE_CURVE('',#169,#169,#191,.T.);
#140=EDGE_CURVE('',#166,#158,#47,.T.);
#141=EDGE_CURVE('',#167,#161,#48,.T.);
#142=EDGE_CURVE('',#170,#170,#192,.T.);
#143=EDGE_CURVE('',#171,#171,#193,.T.);
#144=EDGE_CURVE('',#172,#172,#194,.T.);
#145=EDGE_CURVE('',#173,#173,#195,.T.);
#146=EDGE_CURVE('',#174,#174,#196,.T.);
#147=EDGE_CURVE('',#175,#175,#197,.T.);
#148=EDGE_CURVE('',#176,#176,#198,.T.);
#149=EDGE_CURVE('',#177,#177,#199,.T.);
#150=EDGE_CURVE('',#178,#178,#200,.T.);
#151=EDGE_CURVE('',#179,#179,#201,.T.);
#152=EDGE_CURVE('',#180,#180,#202,.T.);
#153=EDGE_CURVE('',#181,#181,#203,.T.);
#154=EDGE_CURVE('',#182,#182,#204,.T.);
#155=EDGE_CURVE('',#184,#184,#205,.T.);
#156=EDGE_CURVE('',#185,#185,#206,.T.);
#157=VERTEX_POINT('',#496);
#158=VERTEX_POINT('',#498);
#159=VERTEX_POINT('',#499);
#160=VERTEX_POINT('',#501);
#161=VERTEX_POINT('',#503);
#162=VERTEX_POINT('',#507);
#163=VERTEX_POINT('',#509);
#164=VERTEX_POINT('',#511);
#165=VERTEX_POINT('',#513);
#166=VERTEX_POINT('',#517);
#167=VERTEX_POINT('',#519);
#168=VERTEX_POINT('',#523);
#169=VERTEX_POINT('',#525);
#170=VERTEX_POINT('',#530);
#171=VERTEX_POINT('',#532);
#172=VERTEX_POINT('',#535);
#173=VERTEX_POINT('',#537);
#174=VERTEX_POINT('',#542);
#175=VERTEX_POINT('',#545);
#176=VERTEX_POINT('',#549);
#177=VERTEX_POINT('',#552);
#178=VERTEX_POINT('',#556);
#179=VERTEX_POINT('',#559);
#180=VERTEX_POINT('',#562);
#181=VERTEX_POINT('',#566);
#182=VERTEX_POINT('',#569);
#183=VERTEX_POINT('',#571);
#184=VERTEX_POINT('',#574);
#185=VERTEX_POINT('',#577);
#186=VERTEX_POINT('',#579);
#187=CIRCLE('',#348,4.50000000000001);
#188=CIRCLE('',#350,1.5);
#189=CIRCLE('',#351,1.5);
#190=CIRCLE('',#354,2.5);
#191=CIRCLE('',#355,2.5);
#192=CIRCLE('',#357,2.15);
#193=CIRCLE('',#358,2.15);
#194=CIRCLE('',#360,2.15);
#195=CIRCLE('',#361,2.15);
#196=CIRCLE('',#365,2.067);
#197=CIRCLE('',#367,2.067);
#198=CIRCLE('',#370,2.067);
#199=CIRCLE('',#372,2.067);
#200=CIRCLE('',#375,2.25);
#201=CIRCLE('',#377,2.25);
#202=CIRCLE('',#379,3.96410161513776);
#203=CIRCLE('',#382,1.2295);
#204=CIRCLE('',#384,1.2295);
#205=CIRCLE('',#387,1.2295);
#206=CIRCLE('',#389,1.2295);
#207=EDGE_LOOP('',(#61));
#208=EDGE_LOOP('',(#62,#63,#64,#65));
#209=EDGE_LOOP('',(#66));
#210=EDGE_LOOP('',(#67));
#211=EDGE_LOOP('',(#68,#69,#70,#71));
#212=EDGE_LOOP('',(#72,#73,#74,#75));
#213=EDGE_LOOP('',(#76));
#214=EDGE_LOOP('',(#77));
#215=EDGE_LOOP('',(#78,#79,#80,#81));
#216=EDGE_LOOP('',(#82));
#217=EDGE_LOOP('',(#83));
#218=EDGE_LOOP('',(#84,#85,#86,#87));
#219=EDGE_LOOP('',(#88));
#220=EDGE_LOOP('',(#89));
#221=EDGE_LOOP('',(#90,#91,#92,#93));
#222=EDGE_LOOP('',(#94));
#223=EDGE_LOOP('',(#95));
#224=EDGE_LOOP('',(#96));
#225=EDGE_LOOP('',(#97));
#226=EDGE_LOOP('',(#98));
#227=EDGE_LOOP('',(#99));
#228=EDGE_LOOP('',(#100));
#229=EDGE_LOOP('',(#101));
#230=EDGE_LOOP('',(#102));
#231=EDGE_LOOP('',(#103));
#232=EDGE_LOOP('',(#104));
#233=EDGE_LOOP('',(#105));
#234=EDGE_LOOP('',(#106));
#235=EDGE_LOOP('',(#107));
#236=EDGE_LOOP('',(#108));
#237=EDGE_LOOP('',(#109));
#238=EDGE_LOOP('',(#110));
#239=EDGE_LOOP('',(#111));
#240=EDGE_LOOP('',(#112));
#241=EDGE_LOOP('',(#113));
#242=EDGE_LOOP('',(#114));
#243=EDGE_LOOP('',(#115));
#244=EDGE_LOOP('',(#116));
#245=EDGE_LOOP('',(#117));
#246=EDGE_LOOP('',(#118));
#247=EDGE_LOOP('',(#119));
#248=EDGE_LOOP('',(#120));
#249=EDGE_LOOP('',(#121));
#250=EDGE_LOOP('',(#122));
#251=EDGE_LOOP('',(#123));
#252=EDGE_LOOP('',(#124));
#253=FACE_BOUND('',#207,.T.);
#254=FACE_BOUND('',#208,.T.);
#255=FACE_BOUND('',#209,.T.);
#256=FACE_BOUND('',#210,.T.);
#257=FACE_BOUND('',#211,.T.);
#258=FACE_BOUND('',#212,.T.);
#259=FACE_BOUND('',#213,.T.);
#260=FACE_BOUND('',#214,.T.);
#261=FACE_BOUND('',#215,.T.);
#262=FACE_BOUND('',#216,.T.);
#263=FACE_BOUND('',#217,.T.);
#264=FACE_BOUND('',#218,.T.);
#265=FACE_BOUND('',#219,.T.);
#266=FACE_BOUND('',#220,.T.);
#267=FACE_BOUND('',#221,.T.);
#268=FACE_BOUND('',#222,.T.);
#269=FACE_BOUND('',#223,.T.);
#270=FACE_BOUND('',#224,.T.);
#271=FACE_BOUND('',#225,.T.);
#272=FACE_BOUND('',#226,.T.);
#273=FACE_BOUND('',#227,.T.);
#274=FACE_BOUND('',#228,.T.);
#275=FACE_BOUND('',#229,.T.);
#276=FACE_BOUND('',#230,.T.);
#277=FACE_BOUND('',#231,.T.);
#278=FACE_BOUND('',#232,.T.);
#279=FACE_BOUND('',#233,.T.);
#280=FACE_BOUND('',#234,.T.);
#281=FACE_BOUND('',#235,.T.);
#282=FACE_BOUND('',#236,.T.);
#283=FACE_BOUND('',#237,.T.);
#284=FACE_BOUND('',#238,.T.);
#285=FACE_BOUND('',#239,.T.);
#286=FACE_BOUND('',#240,.T.);
#287=FACE_BOUND('',#241,.T.);
#288=FACE_BOUND('',#242,.T.);
#289=FACE_BOUND('',#243,.T.);
#290=FACE_BOUND('',#244,.T.);
#291=FACE_BOUND('',#245,.T.);
#292=FACE_BOUND('',#246,.T.);
#293=FACE_BOUND('',#20,.T.);
#294=FACE_BOUND('',#247,.T.);
#295=FACE_BOUND('',#248,.T.);
#296=FACE_BOUND('',#249,.T.);
#297=FACE_BOUND('',#250,.T.);
#298=FACE_BOUND('',#251,.T.);
#299=FACE_BOUND('',#21,.T.);
#300=FACE_BOUND('',#252,.T.);
#301=PLANE('',#347);
#302=PLANE('',#349);
#303=PLANE('',#352);
#304=PLANE('',#353);
#305=PLANE('',#356);
#306=PLANE('',#359);
#307=PLANE('',#364);
#308=PLANE('',#369);
#309=PLANE('',#378);
#310=ADVANCED_FACE('',(#253,#254),#301,.F.);
#311=ADVANCED_FACE('',(#255,#256,#257),#302,.F.);
#312=ADVANCED_FACE('',(#258),#303,.F.);
#313=ADVANCED_FACE('',(#259,#260,#261),#304,.F.);
#314=ADVANCED_FACE('',(#262,#263,#264),#305,.T.);
#315=ADVANCED_FACE('',(#265,#266,#267),#306,.F.);
#316=ADVANCED_FACE('',(#268,#269),#30,.F.);
#317=ADVANCED_FACE('',(#270,#271),#31,.F.);
#318=ADVANCED_FACE('',(#272),#307,.T.);
#319=ADVANCED_FACE('',(#273,#274),#32,.F.);
#320=ADVANCED_FACE('',(#275,#276),#23,.F.);
#321=ADVANCED_FACE('',(#277),#308,.T.);
#322=ADVANCED_FACE('',(#278,#279),#33,.F.);
#323=ADVANCED_FACE('',(#280,#281),#24,.F.);
#324=ADVANCED_FACE('',(#282),#22,.T.);
#325=ADVANCED_FACE('',(#283,#284),#34,.T.);
#326=ADVANCED_FACE('',(#285,#286),#309,.F.);
#327=ADVANCED_FACE('',(#287,#288),#25,.T.);
#328=ADVANCED_FACE('',(#289,#290),#26,.F.);
#329=ADVANCED_FACE('',(#291,#292),#35,.F.);
#330=ADVANCED_FACE('',(#293,#294),#27,.F.);
#331=ADVANCED_FACE('',(#295,#296),#28,.F.);
#332=ADVANCED_FACE('',(#297,#298),#36,.F.);
#333=ADVANCED_FACE('',(#299,#300),#29,.F.);
#334=CLOSED_SHELL('',(#310,#311,#312,#313,#314,#315,#316,#317,#318,#319,
#320,#321,#322,#323,#324,#325,#326,#327,#328,#329,#330,#331,#332,#333));
#335=STYLED_ITEM('',(#336),#343);
#336=PRESENTATION_STYLE_ASSIGNMENT((#337));
#337=SURFACE_STYLE_USAGE(.BOTH.,#338);
#338=SURFACE_SIDE_STYLE('',(#339));
#339=SURFACE_STYLE_FILL_AREA(#340);
#340=FILL_AREA_STYLE('',(#341));
#341=FILL_AREA_STYLE_COLOUR('',#342);
#342=COLOUR_RGB('',0.689999997615814,0.689999997615814,0.689999997615814);
#343=MANIFOLD_SOLID_BREP('3626 V-3-M5---(0)',#334);
#344=SHAPE_DEFINITION_REPRESENTATION(#586,#345);
#345=SHAPE_REPRESENTATION('3626 V-3-M5---(0)',(#346),#581);
#346=AXIS2_PLACEMENT_3D('',#493,#391,#392);
#347=AXIS2_PLACEMENT_3D('',#494,#393,#394);
#348=AXIS2_PLACEMENT_3D('',#495,#395,#396);
#349=AXIS2_PLACEMENT_3D('',#505,#401,#402);
#350=AXIS2_PLACEMENT_3D('',#506,#403,#404);
#351=AXIS2_PLACEMENT_3D('',#508,#405,#406);
#352=AXIS2_PLACEMENT_3D('',#515,#410,#411);
#353=AXIS2_PLACEMENT_3D('',#521,#415,#416);
#354=AXIS2_PLACEMENT_3D('',#522,#417,#418);
#355=AXIS2_PLACEMENT_3D('',#524,#419,#420);
#356=AXIS2_PLACEMENT_3D('',#528,#423,#424);
#357=AXIS2_PLACEMENT_3D('',#529,#425,#426);
#358=AXIS2_PLACEMENT_3D('',#531,#427,#428);
#359=AXIS2_PLACEMENT_3D('',#533,#429,#430);
#360=AXIS2_PLACEMENT_3D('',#534,#431,#432);
#361=AXIS2_PLACEMENT_3D('',#536,#433,#434);
#362=AXIS2_PLACEMENT_3D('',#538,#435,#436);
#363=AXIS2_PLACEMENT_3D('',#539,#437,#438);
#364=AXIS2_PLACEMENT_3D('',#540,#439,#440);
#365=AXIS2_PLACEMENT_3D('',#541,#441,#442);
#366=AXIS2_PLACEMENT_3D('',#543,#443,#444);
#367=AXIS2_PLACEMENT_3D('',#544,#445,#446);
#368=AXIS2_PLACEMENT_3D('',#546,#447,#448);
#369=AXIS2_PLACEMENT_3D('',#547,#449,#450);
#370=AXIS2_PLACEMENT_3D('',#548,#451,#452);
#371=AXIS2_PLACEMENT_3D('',#550,#453,#454);
#372=AXIS2_PLACEMENT_3D('',#551,#455,#456);
#373=AXIS2_PLACEMENT_3D('',#553,#457,#458);
#374=AXIS2_PLACEMENT_3D('',#554,#459,#460);
#375=AXIS2_PLACEMENT_3D('',#555,#461,#462);
#376=AXIS2_PLACEMENT_3D('',#557,#463,#464);
#377=AXIS2_PLACEMENT_3D('',#558,#465,#466);
#378=AXIS2_PLACEMENT_3D('',#560,#467,#468);
#379=AXIS2_PLACEMENT_3D('',#561,#469,#470);
#380=AXIS2_PLACEMENT_3D('',#563,#471,#472);
#381=AXIS2_PLACEMENT_3D('',#564,#473,#474);
#382=AXIS2_PLACEMENT_3D('',#565,#475,#476);
#383=AXIS2_PLACEMENT_3D('',#567,#477,#478);
#384=AXIS2_PLACEMENT_3D('',#568,#479,#480);
#385=AXIS2_PLACEMENT_3D('',#570,#481,#482);
#386=AXIS2_PLACEMENT_3D('',#572,#483,#484);
#387=AXIS2_PLACEMENT_3D('',#573,#485,#486);
#388=AXIS2_PLACEMENT_3D('',#575,#487,#488);
#389=AXIS2_PLACEMENT_3D('',#576,#489,#490);
#390=AXIS2_PLACEMENT_3D('',#578,#491,#492);
#391=DIRECTION('',(0.,0.,1.));
#392=DIRECTION('',(1.,0.,0.));
#393=DIRECTION('',(0.,-1.,0.));
#394=DIRECTION('',(0.,0.,-1.));
#395=DIRECTION('',(0.,-1.,0.));
#396=DIRECTION('',(0.,0.,-1.));
#397=DIRECTION('',(-1.,0.,0.));
#398=DIRECTION('',(0.,0.,-1.));
#399=DIRECTION('',(-1.,0.,0.));
#400=DIRECTION('',(0.,0.,-1.));
#401=DIRECTION('',(1.,0.,0.));
#402=DIRECTION('',(0.,0.,-1.));
#403=DIRECTION('',(1.,0.,0.));
#404=DIRECTION('',(0.,0.,-1.));
#405=DIRECTION('',(1.,0.,0.));
#406=DIRECTION('',(0.,0.,-1.));
#407=DIRECTION('',(0.,-1.,0.));
#408=DIRECTION('',(0.,0.,-1.));
#409=DIRECTION('',(0.,-1.,0.));
#410=DIRECTION('',(0.,1.,0.));
#411=DIRECTION('',(0.,0.,1.));
#412=DIRECTION('',(1.,0.,0.));
#413=DIRECTION('',(0.,0.,-1.));
#414=DIRECTION('',(1.,0.,0.));
#415=DIRECTION('',(-1.,0.,0.));
#416=DIRECTION('',(0.,0.,1.));
#417=DIRECTION('',(1.,0.,0.));
#418=DIRECTION('',(0.,0.,-1.));
#419=DIRECTION('',(1.,0.,0.));
#420=DIRECTION('',(0.,0.,-1.));
#421=DIRECTION('',(0.,1.,0.));
#422=DIRECTION('',(0.,1.,0.));
#423=DIRECTION('',(0.,0.,1.));
#424=DIRECTION('',(1.,0.,0.));
#425=DIRECTION('',(0.,0.,-1.));
#426=DIRECTION('',(-1.,0.,0.));
#427=DIRECTION('',(0.,0.,1.));
#428=DIRECTION('',(1.,0.,0.));
#429=DIRECTION('',(0.,0.,1.));
#430=DIRECTION('',(1.,0.,0.));
#431=DIRECTION('',(0.,0.,-1.));
#432=DIRECTION('',(-1.,0.,0.));
#433=DIRECTION('',(0.,0.,1.));
#434=DIRECTION('',(1.,0.,0.));
#435=DIRECTION('',(0.,0.,1.));
#436=DIRECTION('',(1.,0.,0.));
#437=DIRECTION('',(0.,0.,-1.));
#438=DIRECTION('',(-1.,0.,0.));
#439=DIRECTION('',(1.,0.,0.));
#440=DIRECTION('',(0.,0.,-1.));
#441=DIRECTION('',(1.,0.,0.));
#442=DIRECTION('',(0.,0.,-1.));
#443=DIRECTION('',(1.,0.,0.));
#444=DIRECTION('',(0.,0.,-1.));
#445=DIRECTION('',(1.,0.,0.));
#446=DIRECTION('',(0.,0.,-1.));
#447=DIRECTION('',(1.,0.,0.));
#448=DIRECTION('',(0.,0.,-1.));
#449=DIRECTION('',(1.,0.,0.));
#450=DIRECTION('',(0.,0.,-1.));
#451=DIRECTION('',(1.,0.,0.));
#452=DIRECTION('',(0.,0.,-1.));
#453=DIRECTION('',(1.,0.,0.));
#454=DIRECTION('',(0.,0.,-1.));
#455=DIRECTION('',(1.,0.,0.));
#456=DIRECTION('',(0.,0.,-1.));
#457=DIRECTION('',(1.,0.,0.));
#458=DIRECTION('',(0.,0.,-1.));
#459=DIRECTION('',(0.,-1.,0.));
#460=DIRECTION('',(1.,0.,0.));
#461=DIRECTION('',(0.,-1.,0.));
#462=DIRECTION('',(0.,0.,-1.));
#463=DIRECTION('',(0.,-1.,0.));
#464=DIRECTION('',(0.,0.,-1.));
#465=DIRECTION('',(0.,-1.,0.));
#466=DIRECTION('',(0.,0.,-1.));
#467=DIRECTION('',(0.,-1.,0.));
#468=DIRECTION('',(0.,0.,-1.));
#469=DIRECTION('',(0.,-1.,0.));
#470=DIRECTION('',(0.,0.,-1.));
#471=DIRECTION('',(0.,-1.,0.));
#472=DIRECTION('',(0.,0.,-1.));
#473=DIRECTION('',(-1.,0.,0.));
#474=DIRECTION('',(0.,0.,1.));
#475=DIRECTION('',(1.,0.,0.));
#476=DIRECTION('',(0.,0.,-1.));
#477=DIRECTION('',(1.,0.,0.));
#478=DIRECTION('',(0.,0.,-1.));
#479=DIRECTION('',(1.,0.,0.));
#480=DIRECTION('',(0.,0.,-1.));
#481=DIRECTION('',(-1.,0.,0.));
#482=DIRECTION('',(0.,0.,1.));
#483=DIRECTION('',(-1.,0.,0.));
#484=DIRECTION('',(0.,0.,1.));
#485=DIRECTION('',(1.,0.,0.));
#486=DIRECTION('',(0.,0.,-1.));
#487=DIRECTION('',(1.,0.,0.));
#488=DIRECTION('',(0.,0.,-1.));
#489=DIRECTION('',(1.,0.,0.));
#490=DIRECTION('',(0.,0.,-1.));
#491=DIRECTION('',(-1.,0.,0.));
#492=DIRECTION('',(0.,0.,1.));
#493=CARTESIAN_POINT('',(0.,0.,0.));
#494=CARTESIAN_POINT('',(10.,30.,7.5));
#495=CARTESIAN_POINT('',(0.,30.,0.));
#496=CARTESIAN_POINT('',(0.,30.,-4.50000000000001));
#497=CARTESIAN_POINT('',(10.,30.,-7.5));
#498=CARTESIAN_POINT('',(10.,30.,-7.5));
#499=CARTESIAN_POINT('',(-10.,30.,-7.5));
#500=CARTESIAN_POINT('',(-10.,30.,7.5));
#501=CARTESIAN_POINT('',(-10.,30.,7.5));
#502=CARTESIAN_POINT('',(10.,30.,7.5));
#503=CARTESIAN_POINT('',(10.,30.,7.5));
#504=CARTESIAN_POINT('',(10.,30.,7.5));
#505=CARTESIAN_POINT('',(-10.,30.,7.5));
#506=CARTESIAN_POINT('',(-10.,25.,-4.));
#507=CARTESIAN_POINT('',(-10.,25.,-5.5));
#508=CARTESIAN_POINT('',(-10.,25.,4.));
#509=CARTESIAN_POINT('',(-10.,25.,2.5));
#510=CARTESIAN_POINT('',(-10.,30.,-7.5));
#511=CARTESIAN_POINT('',(-10.,0.,-7.5));
#512=CARTESIAN_POINT('',(-10.,0.,7.5));
#513=CARTESIAN_POINT('',(-10.,0.,7.5));
#514=CARTESIAN_POINT('',(-10.,30.,7.5));
#515=CARTESIAN_POINT('',(-10.,0.,7.5));
#516=CARTESIAN_POINT('',(-10.,0.,-7.5));
#517=CARTESIAN_POINT('',(10.,0.,-7.5));
#518=CARTESIAN_POINT('',(10.,0.,7.5));
#519=CARTESIAN_POINT('',(10.,0.,7.5));
#520=CARTESIAN_POINT('',(-10.,0.,7.5));
#521=CARTESIAN_POINT('',(10.,0.,7.5));
#522=CARTESIAN_POINT('',(10.,23.,0.));
#523=CARTESIAN_POINT('',(10.,23.,-2.5));
#524=CARTESIAN_POINT('',(10.,10.,0.));
#525=CARTESIAN_POINT('',(10.,10.,-2.5));
#526=CARTESIAN_POINT('',(10.,0.,-7.5));
#527=CARTESIAN_POINT('',(10.,0.,7.5));
#528=CARTESIAN_POINT('',(0.,0.,7.5));
#529=CARTESIAN_POINT('',(-6.,17.,7.5));
#530=CARTESIAN_POINT('',(-8.15,17.,7.5));
#531=CARTESIAN_POINT('',(6.,17.,7.5));
#532=CARTESIAN_POINT('',(8.15,17.,7.5));
#533=CARTESIAN_POINT('',(0.,0.,-7.5));
#534=CARTESIAN_POINT('',(-6.,17.,-7.5));
#535=CARTESIAN_POINT('',(-8.15,17.,-7.5));
#536=CARTESIAN_POINT('',(6.,17.,-7.5));
#537=CARTESIAN_POINT('',(8.15,17.,-7.5));
#538=CARTESIAN_POINT('',(6.,17.,7.5));
#539=CARTESIAN_POINT('',(-6.,17.,-7.5));
#540=CARTESIAN_POINT('',(3.33333333333333,10.,0.));
#541=CARTESIAN_POINT('',(3.33333333333333,10.,0.));
#542=CARTESIAN_POINT('',(3.33333333333333,10.,-2.067));
#543=CARTESIAN_POINT('',(10.,10.,0.));
#544=CARTESIAN_POINT('',(9.567,10.,0.));
#545=CARTESIAN_POINT('',(9.567,10.,-2.067));
#546=CARTESIAN_POINT('',(9.567,10.,0.));
#547=CARTESIAN_POINT('',(3.33333333333333,23.,0.));
#548=CARTESIAN_POINT('',(3.33333333333333,23.,0.));
#549=CARTESIAN_POINT('',(3.33333333333333,23.,-2.067));
#550=CARTESIAN_POINT('',(10.,23.,0.));
#551=CARTESIAN_POINT('',(9.567,23.,0.));
#552=CARTESIAN_POINT('',(9.567,23.,-2.067));
#553=CARTESIAN_POINT('',(9.567,23.,0.));
#554=CARTESIAN_POINT('',(8.4893030105615E-14,30.4998572251274,0.));
#555=CARTESIAN_POINT('',(0.,34.965,0.));
#556=CARTESIAN_POINT('',(0.,34.965,-2.25));
#557=CARTESIAN_POINT('',(0.,30.,0.));
#558=CARTESIAN_POINT('',(0.,32.,0.));
#559=CARTESIAN_POINT('',(0.,32.,-2.25));
#560=CARTESIAN_POINT('',(2.25,32.,0.));
#561=CARTESIAN_POINT('',(0.,32.,0.));
#562=CARTESIAN_POINT('',(0.,32.,-3.96410161513776));
#563=CARTESIAN_POINT('',(0.,32.,0.));
#564=CARTESIAN_POINT('',(-10.,25.,4.));
#565=CARTESIAN_POINT('',(-9.7295,25.,4.));
#566=CARTESIAN_POINT('',(-9.7295,25.,2.7705));
#567=CARTESIAN_POINT('',(-2.29014784403135,25.,4.));
#568=CARTESIAN_POINT('',(-3.,25.,4.));
#569=CARTESIAN_POINT('',(-3.,25.,2.7705));
#570=CARTESIAN_POINT('',(-3.,25.,4.));
#571=CARTESIAN_POINT('',(-2.29014784403135,25.,4.));
#572=CARTESIAN_POINT('',(-10.,25.,-4.));
#573=CARTESIAN_POINT('',(-9.7295,25.,-4.));
#574=CARTESIAN_POINT('',(-9.7295,25.,-5.2295));
#575=CARTESIAN_POINT('',(-2.29014784403135,25.,-4.));
#576=CARTESIAN_POINT('',(-3.,25.,-4.));
#577=CARTESIAN_POINT('',(-3.,25.,-5.2295));
#578=CARTESIAN_POINT('',(-3.,25.,-4.));
#579=CARTESIAN_POINT('',(-2.29014784403135,25.,-4.));
#580=MECHANICAL_DESIGN_GEOMETRIC_PRESENTATION_REPRESENTATION('',(#335),
#581);
#581=(
GEOMETRIC_REPRESENTATION_CONTEXT(3)
GLOBAL_UNCERTAINTY_ASSIGNED_CONTEXT((#582))
GLOBAL_UNIT_ASSIGNED_CONTEXT((#585,#584,#583))
REPRESENTATION_CONTEXT('3626 V-3-M5---(0)','TOP_LEVEL_ASSEMBLY_PART')
);
#582=UNCERTAINTY_MEASURE_WITH_UNIT(LENGTH_MEASURE(0.005),#585,
'DISTANCE_ACCURACY_VALUE','Maximum Tolerance applied to model');
#583=(
NAMED_UNIT(*)
SI_UNIT($,.STERADIAN.)
SOLID_ANGLE_UNIT()
);
#584=(
NAMED_UNIT(*)
PLANE_ANGLE_UNIT()
SI_UNIT($,.RADIAN.)
);
#585=(
LENGTH_UNIT()
NAMED_UNIT(*)
SI_UNIT(.MILLI.,.METRE.)
);
#586=PRODUCT_DEFINITION_SHAPE('','',#587);
#587=PRODUCT_DEFINITION('','',#589,#588);
#588=PRODUCT_DEFINITION_CONTEXT('',#595,'design');
#589=PRODUCT_DEFINITION_FORMATION_WITH_SPECIFIED_SOURCE('','',#591,
 .NOT_KNOWN.);
#590=PRODUCT_RELATED_PRODUCT_CATEGORY('','',(#591));
#591=PRODUCT('3626 V-3-M5---(0)','3626 V-3-M5---(0)',
'3626 V-3-M5---(0)',(#593));
#592=PRODUCT_CATEGORY('','');
#593=PRODUCT_CONTEXT('',#595,'mechanical');
#594=APPLICATION_PROTOCOL_DEFINITION('international standard',
'automotive_design',2010,#595);
#595=APPLICATION_CONTEXT(
'core data for automotive mechanical design processes');
ENDSEC;
END-ISO-10303-21;
