ISO-10303-21;
HEADER;
/* Generated by software containing ST-Developer
 * from STEP Tools, Inc. (www.steptools.com) 
 */
/* OPTION: using custom renumber hook */

FILE_DESCRIPTION(
/* description */ ('STEP AP214'),
/* implementation_level */ '2;1');

FILE_NAME(
/* name */ '2153_KS4-N-9',
/* time_stamp */ '2024-08-28T12:04:33+02:00',
/* author */ ('License CC BY-ND 4.0'),
/* organization */ ('CADENAS'),
/* preprocessor_version */ 'ST-DEVELOPER v19.3',
/* originating_system */ 'PARTsolutions',
/* authorisation */ '  ');

FILE_SCHEMA (('AUTOMOTIVE_DESIGN {1 0 10303 214 3 1 1}'));
ENDSEC;

DATA;
#10=PROPERTY_DEFINITION_REPRESENTATION(#14,#12);
#11=PROPERTY_DEFINITION_REPRESENTATION(#15,#13);
#12=REPRESENTATION('',(#16),#497);
#13=REPRESENTATION('',(#17),#497);
#14=PROPERTY_DEFINITION('pmi validation property','',#502);
#15=PROPERTY_DEFINITION('pmi validation property','',#502);
#16=VALUE_REPRESENTATION_ITEM('number of annotations',COUNT_MEASURE(0.));
#17=VALUE_REPRESENTATION_ITEM('number of views',COUNT_MEASURE(0.));
#18=SHAPE_REPRESENTATION_RELATIONSHIP('','',#284,#19);
#19=ADVANCED_BREP_SHAPE_REPRESENTATION('',(#282),#497);
#20=CONICAL_SURFACE('',#293,5.,0.785398163397448);
#21=CONICAL_SURFACE('',#305,6.,0.785398163397453);
#22=CONICAL_SURFACE('',#317,5.,0.122173047639604);
#23=CONICAL_SURFACE('',#323,5.,0.122173047639603);
#24=CONICAL_SURFACE('',#329,3.8,0.785398163397453);
#25=CYLINDRICAL_SURFACE('',#291,5.);
#26=CYLINDRICAL_SURFACE('',#295,6.);
#27=CYLINDRICAL_SURFACE('',#299,4.875);
#28=CYLINDRICAL_SURFACE('',#303,6.);
#29=CYLINDRICAL_SURFACE('',#311,4.5);
#30=CYLINDRICAL_SURFACE('',#331,3.5);
#31=TOROIDAL_SURFACE('',#289,3.99999999999999,1.00000000000001);
#32=TOROIDAL_SURFACE('',#297,7.3173189703441,2.75000000000006);
#33=TOROIDAL_SURFACE('',#301,7.27972387780526,2.75000000000012);
#34=TOROIDAL_SURFACE('',#309,5.50000000000001,1.);
#35=TOROIDAL_SURFACE('',#315,4.8,0.200000000000001);
#36=TOROIDAL_SURFACE('',#321,4.8,0.2);
#37=TOROIDAL_SURFACE('',#325,4.05674400184368,0.399999999999998);
#38=ORIENTED_EDGE('',*,*,#84,.F.);
#39=ORIENTED_EDGE('',*,*,#85,.T.);
#40=ORIENTED_EDGE('',*,*,#84,.T.);
#41=ORIENTED_EDGE('',*,*,#86,.F.);
#42=ORIENTED_EDGE('',*,*,#87,.F.);
#43=ORIENTED_EDGE('',*,*,#86,.T.);
#44=ORIENTED_EDGE('',*,*,#88,.F.);
#45=ORIENTED_EDGE('',*,*,#87,.T.);
#46=ORIENTED_EDGE('',*,*,#89,.F.);
#47=ORIENTED_EDGE('',*,*,#88,.T.);
#48=ORIENTED_EDGE('',*,*,#90,.F.);
#49=ORIENTED_EDGE('',*,*,#89,.T.);
#50=ORIENTED_EDGE('',*,*,#91,.F.);
#51=ORIENTED_EDGE('',*,*,#90,.T.);
#52=ORIENTED_EDGE('',*,*,#92,.F.);
#53=ORIENTED_EDGE('',*,*,#91,.T.);
#54=ORIENTED_EDGE('',*,*,#93,.F.);
#55=ORIENTED_EDGE('',*,*,#92,.T.);
#56=ORIENTED_EDGE('',*,*,#94,.F.);
#57=ORIENTED_EDGE('',*,*,#93,.T.);
#58=ORIENTED_EDGE('',*,*,#95,.F.);
#59=ORIENTED_EDGE('',*,*,#94,.T.);
#60=ORIENTED_EDGE('',*,*,#96,.F.);
#61=ORIENTED_EDGE('',*,*,#95,.T.);
#62=ORIENTED_EDGE('',*,*,#97,.F.);
#63=ORIENTED_EDGE('',*,*,#96,.T.);
#64=ORIENTED_EDGE('',*,*,#98,.F.);
#65=ORIENTED_EDGE('',*,*,#97,.T.);
#66=ORIENTED_EDGE('',*,*,#98,.T.);
#67=ORIENTED_EDGE('',*,*,#99,.F.);
#68=ORIENTED_EDGE('',*,*,#100,.F.);
#69=ORIENTED_EDGE('',*,*,#99,.T.);
#70=ORIENTED_EDGE('',*,*,#101,.F.);
#71=ORIENTED_EDGE('',*,*,#100,.T.);
#72=ORIENTED_EDGE('',*,*,#101,.T.);
#73=ORIENTED_EDGE('',*,*,#102,.F.);
#74=ORIENTED_EDGE('',*,*,#103,.F.);
#75=ORIENTED_EDGE('',*,*,#102,.T.);
#76=ORIENTED_EDGE('',*,*,#103,.T.);
#77=ORIENTED_EDGE('',*,*,#104,.F.);
#78=ORIENTED_EDGE('',*,*,#105,.F.);
#79=ORIENTED_EDGE('',*,*,#104,.T.);
#80=ORIENTED_EDGE('',*,*,#106,.T.);
#81=ORIENTED_EDGE('',*,*,#85,.F.);
#82=ORIENTED_EDGE('',*,*,#105,.T.);
#83=ORIENTED_EDGE('',*,*,#106,.F.);
#84=EDGE_CURVE('',#107,#107,#130,.T.);
#85=EDGE_CURVE('',#108,#108,#131,.T.);
#86=EDGE_CURVE('',#109,#109,#132,.T.);
#87=EDGE_CURVE('',#110,#110,#133,.T.);
#88=EDGE_CURVE('',#111,#111,#134,.T.);
#89=EDGE_CURVE('',#112,#112,#135,.T.);
#90=EDGE_CURVE('',#113,#113,#136,.T.);
#91=EDGE_CURVE('',#114,#114,#137,.T.);
#92=EDGE_CURVE('',#115,#115,#138,.T.);
#93=EDGE_CURVE('',#116,#116,#139,.T.);
#94=EDGE_CURVE('',#117,#117,#140,.T.);
#95=EDGE_CURVE('',#118,#118,#141,.T.);
#96=EDGE_CURVE('',#119,#119,#142,.T.);
#97=EDGE_CURVE('',#120,#120,#143,.T.);
#98=EDGE_CURVE('',#121,#121,#144,.T.);
#99=EDGE_CURVE('',#122,#122,#145,.T.);
#100=EDGE_CURVE('',#123,#123,#146,.T.);
#101=EDGE_CURVE('',#124,#124,#147,.T.);
#102=EDGE_CURVE('',#125,#125,#148,.T.);
#103=EDGE_CURVE('',#126,#126,#149,.T.);
#104=EDGE_CURVE('',#127,#127,#150,.T.);
#105=EDGE_CURVE('',#128,#128,#151,.T.);
#106=EDGE_CURVE('',#129,#129,#152,.T.);
#107=VERTEX_POINT('',#429);
#108=VERTEX_POINT('',#431);
#109=VERTEX_POINT('',#434);
#110=VERTEX_POINT('',#437);
#111=VERTEX_POINT('',#440);
#112=VERTEX_POINT('',#443);
#113=VERTEX_POINT('',#446);
#114=VERTEX_POINT('',#449);
#115=VERTEX_POINT('',#452);
#116=VERTEX_POINT('',#455);
#117=VERTEX_POINT('',#458);
#118=VERTEX_POINT('',#461);
#119=VERTEX_POINT('',#464);
#120=VERTEX_POINT('',#467);
#121=VERTEX_POINT('',#470);
#122=VERTEX_POINT('',#473);
#123=VERTEX_POINT('',#476);
#124=VERTEX_POINT('',#479);
#125=VERTEX_POINT('',#482);
#126=VERTEX_POINT('',#485);
#127=VERTEX_POINT('',#488);
#128=VERTEX_POINT('',#491);
#129=VERTEX_POINT('',#494);
#130=CIRCLE('',#287,4.);
#131=CIRCLE('',#288,3.8);
#132=CIRCLE('',#290,5.);
#133=CIRCLE('',#292,5.);
#134=CIRCLE('',#294,6.);
#135=CIRCLE('',#296,6.);
#136=CIRCLE('',#298,4.875);
#137=CIRCLE('',#300,4.875);
#138=CIRCLE('',#302,6.);
#139=CIRCLE('',#304,6.);
#140=CIRCLE('',#306,5.8);
#141=CIRCLE('',#308,5.5);
#142=CIRCLE('',#310,4.5);
#143=CIRCLE('',#312,4.5);
#144=CIRCLE('',#314,4.8);
#145=CIRCLE('',#316,5.);
#146=CIRCLE('',#318,4.53341866856896);
#147=CIRCLE('',#320,4.8);
#148=CIRCLE('',#322,5.);
#149=CIRCLE('',#324,4.45376246250021);
#150=CIRCLE('',#326,4.05674400184368);
#151=CIRCLE('',#328,3.5);
#152=CIRCLE('',#330,3.5);
#153=EDGE_LOOP('',(#38));
#154=EDGE_LOOP('',(#39));
#155=EDGE_LOOP('',(#40));
#156=EDGE_LOOP('',(#41));
#157=EDGE_LOOP('',(#42));
#158=EDGE_LOOP('',(#43));
#159=EDGE_LOOP('',(#44));
#160=EDGE_LOOP('',(#45));
#161=EDGE_LOOP('',(#46));
#162=EDGE_LOOP('',(#47));
#163=EDGE_LOOP('',(#48));
#164=EDGE_LOOP('',(#49));
#165=EDGE_LOOP('',(#50));
#166=EDGE_LOOP('',(#51));
#167=EDGE_LOOP('',(#52));
#168=EDGE_LOOP('',(#53));
#169=EDGE_LOOP('',(#54));
#170=EDGE_LOOP('',(#55));
#171=EDGE_LOOP('',(#56));
#172=EDGE_LOOP('',(#57));
#173=EDGE_LOOP('',(#58));
#174=EDGE_LOOP('',(#59));
#175=EDGE_LOOP('',(#60));
#176=EDGE_LOOP('',(#61));
#177=EDGE_LOOP('',(#62));
#178=EDGE_LOOP('',(#63));
#179=EDGE_LOOP('',(#64));
#180=EDGE_LOOP('',(#65));
#181=EDGE_LOOP('',(#66));
#182=EDGE_LOOP('',(#67));
#183=EDGE_LOOP('',(#68));
#184=EDGE_LOOP('',(#69));
#185=EDGE_LOOP('',(#70));
#186=EDGE_LOOP('',(#71));
#187=EDGE_LOOP('',(#72));
#188=EDGE_LOOP('',(#73));
#189=EDGE_LOOP('',(#74));
#190=EDGE_LOOP('',(#75));
#191=EDGE_LOOP('',(#76));
#192=EDGE_LOOP('',(#77));
#193=EDGE_LOOP('',(#78));
#194=EDGE_LOOP('',(#79));
#195=EDGE_LOOP('',(#80));
#196=EDGE_LOOP('',(#81));
#197=EDGE_LOOP('',(#82));
#198=EDGE_LOOP('',(#83));
#199=FACE_BOUND('',#153,.T.);
#200=FACE_BOUND('',#154,.T.);
#201=FACE_BOUND('',#155,.T.);
#202=FACE_BOUND('',#156,.T.);
#203=FACE_BOUND('',#157,.T.);
#204=FACE_BOUND('',#158,.T.);
#205=FACE_BOUND('',#159,.T.);
#206=FACE_BOUND('',#160,.T.);
#207=FACE_BOUND('',#161,.T.);
#208=FACE_BOUND('',#162,.T.);
#209=FACE_BOUND('',#163,.T.);
#210=FACE_BOUND('',#164,.T.);
#211=FACE_BOUND('',#165,.T.);
#212=FACE_BOUND('',#166,.T.);
#213=FACE_BOUND('',#167,.T.);
#214=FACE_BOUND('',#168,.T.);
#215=FACE_BOUND('',#169,.T.);
#216=FACE_BOUND('',#170,.T.);
#217=FACE_BOUND('',#171,.T.);
#218=FACE_BOUND('',#172,.T.);
#219=FACE_BOUND('',#173,.T.);
#220=FACE_BOUND('',#174,.T.);
#221=FACE_BOUND('',#175,.T.);
#222=FACE_BOUND('',#176,.T.);
#223=FACE_BOUND('',#177,.T.);
#224=FACE_BOUND('',#178,.T.);
#225=FACE_BOUND('',#179,.T.);
#226=FACE_BOUND('',#180,.T.);
#227=FACE_BOUND('',#181,.T.);
#228=FACE_BOUND('',#182,.T.);
#229=FACE_BOUND('',#183,.T.);
#230=FACE_BOUND('',#184,.T.);
#231=FACE_BOUND('',#185,.T.);
#232=FACE_BOUND('',#186,.T.);
#233=FACE_BOUND('',#187,.T.);
#234=FACE_BOUND('',#188,.T.);
#235=FACE_BOUND('',#189,.T.);
#236=FACE_BOUND('',#190,.T.);
#237=FACE_BOUND('',#191,.T.);
#238=FACE_BOUND('',#192,.T.);
#239=FACE_BOUND('',#193,.T.);
#240=FACE_BOUND('',#194,.T.);
#241=FACE_BOUND('',#195,.T.);
#242=FACE_BOUND('',#196,.T.);
#243=FACE_BOUND('',#197,.T.);
#244=FACE_BOUND('',#198,.T.);
#245=PLANE('',#286);
#246=PLANE('',#307);
#247=PLANE('',#313);
#248=PLANE('',#319);
#249=PLANE('',#327);
#250=ADVANCED_FACE('',(#199,#200),#245,.F.);
#251=ADVANCED_FACE('',(#201,#202),#31,.T.);
#252=ADVANCED_FACE('',(#203,#204),#25,.T.);
#253=ADVANCED_FACE('',(#205,#206),#20,.T.);
#254=ADVANCED_FACE('',(#207,#208),#26,.T.);
#255=ADVANCED_FACE('',(#209,#210),#32,.F.);
#256=ADVANCED_FACE('',(#211,#212),#27,.T.);
#257=ADVANCED_FACE('',(#213,#214),#33,.F.);
#258=ADVANCED_FACE('',(#215,#216),#28,.T.);
#259=ADVANCED_FACE('',(#217,#218),#21,.T.);
#260=ADVANCED_FACE('',(#219,#220),#246,.F.);
#261=ADVANCED_FACE('',(#221,#222),#34,.F.);
#262=ADVANCED_FACE('',(#223,#224),#29,.T.);
#263=ADVANCED_FACE('',(#225,#226),#247,.F.);
#264=ADVANCED_FACE('',(#227,#228),#35,.T.);
#265=ADVANCED_FACE('',(#229,#230),#22,.T.);
#266=ADVANCED_FACE('',(#231,#232),#248,.F.);
#267=ADVANCED_FACE('',(#233,#234),#36,.T.);
#268=ADVANCED_FACE('',(#235,#236),#23,.T.);
#269=ADVANCED_FACE('',(#237,#238),#37,.T.);
#270=ADVANCED_FACE('',(#239,#240),#249,.F.);
#271=ADVANCED_FACE('',(#241,#242),#24,.F.);
#272=ADVANCED_FACE('',(#243,#244),#30,.F.);
#273=CLOSED_SHELL('',(#250,#251,#252,#253,#254,#255,#256,#257,#258,#259,
#260,#261,#262,#263,#264,#265,#266,#267,#268,#269,#270,#271,#272));
#274=STYLED_ITEM('',(#275),#282);
#275=PRESENTATION_STYLE_ASSIGNMENT((#276));
#276=SURFACE_STYLE_USAGE(.BOTH.,#277);
#277=SURFACE_SIDE_STYLE('',(#278));
#278=SURFACE_STYLE_FILL_AREA(#279);
#279=FILL_AREA_STYLE('',(#280));
#280=FILL_AREA_STYLE_COLOUR('',#281);
#281=COLOUR_RGB('',0.689999997615814,0.689999997615814,0.689999997615814);
#282=MANIFOLD_SOLID_BREP('2153 KS4-N-9',#273);
#283=SHAPE_DEFINITION_REPRESENTATION(#502,#284);
#284=SHAPE_REPRESENTATION('2153 KS4-N-9',(#285),#497);
#285=AXIS2_PLACEMENT_3D('',#426,#332,#333);
#286=AXIS2_PLACEMENT_3D('',#427,#334,#335);
#287=AXIS2_PLACEMENT_3D('',#428,#336,#337);
#288=AXIS2_PLACEMENT_3D('',#430,#338,#339);
#289=AXIS2_PLACEMENT_3D('',#432,#340,#341);
#290=AXIS2_PLACEMENT_3D('',#433,#342,#343);
#291=AXIS2_PLACEMENT_3D('',#435,#344,#345);
#292=AXIS2_PLACEMENT_3D('',#436,#346,#347);
#293=AXIS2_PLACEMENT_3D('',#438,#348,#349);
#294=AXIS2_PLACEMENT_3D('',#439,#350,#351);
#295=AXIS2_PLACEMENT_3D('',#441,#352,#353);
#296=AXIS2_PLACEMENT_3D('',#442,#354,#355);
#297=AXIS2_PLACEMENT_3D('',#444,#356,#357);
#298=AXIS2_PLACEMENT_3D('',#445,#358,#359);
#299=AXIS2_PLACEMENT_3D('',#447,#360,#361);
#300=AXIS2_PLACEMENT_3D('',#448,#362,#363);
#301=AXIS2_PLACEMENT_3D('',#450,#364,#365);
#302=AXIS2_PLACEMENT_3D('',#451,#366,#367);
#303=AXIS2_PLACEMENT_3D('',#453,#368,#369);
#304=AXIS2_PLACEMENT_3D('',#454,#370,#371);
#305=AXIS2_PLACEMENT_3D('',#456,#372,#373);
#306=AXIS2_PLACEMENT_3D('',#457,#374,#375);
#307=AXIS2_PLACEMENT_3D('',#459,#376,#377);
#308=AXIS2_PLACEMENT_3D('',#460,#378,#379);
#309=AXIS2_PLACEMENT_3D('',#462,#380,#381);
#310=AXIS2_PLACEMENT_3D('',#463,#382,#383);
#311=AXIS2_PLACEMENT_3D('',#465,#384,#385);
#312=AXIS2_PLACEMENT_3D('',#466,#386,#387);
#313=AXIS2_PLACEMENT_3D('',#468,#388,#389);
#314=AXIS2_PLACEMENT_3D('',#469,#390,#391);
#315=AXIS2_PLACEMENT_3D('',#471,#392,#393);
#316=AXIS2_PLACEMENT_3D('',#472,#394,#395);
#317=AXIS2_PLACEMENT_3D('',#474,#396,#397);
#318=AXIS2_PLACEMENT_3D('',#475,#398,#399);
#319=AXIS2_PLACEMENT_3D('',#477,#400,#401);
#320=AXIS2_PLACEMENT_3D('',#478,#402,#403);
#321=AXIS2_PLACEMENT_3D('',#480,#404,#405);
#322=AXIS2_PLACEMENT_3D('',#481,#406,#407);
#323=AXIS2_PLACEMENT_3D('',#483,#408,#409);
#324=AXIS2_PLACEMENT_3D('',#484,#410,#411);
#325=AXIS2_PLACEMENT_3D('',#486,#412,#413);
#326=AXIS2_PLACEMENT_3D('',#487,#414,#415);
#327=AXIS2_PLACEMENT_3D('',#489,#416,#417);
#328=AXIS2_PLACEMENT_3D('',#490,#418,#419);
#329=AXIS2_PLACEMENT_3D('',#492,#420,#421);
#330=AXIS2_PLACEMENT_3D('',#493,#422,#423);
#331=AXIS2_PLACEMENT_3D('',#495,#424,#425);
#332=DIRECTION('',(0.,0.,1.));
#333=DIRECTION('',(1.,0.,0.));
#334=DIRECTION('',(0.,0.,-1.));
#335=DIRECTION('',(-1.,0.,0.));
#336=DIRECTION('',(0.,0.,-1.));
#337=DIRECTION('',(-1.,0.,0.));
#338=DIRECTION('',(0.,0.,-1.));
#339=DIRECTION('',(-1.,0.,0.));
#340=DIRECTION('',(0.,0.,-1.));
#341=DIRECTION('',(-1.,0.,0.));
#342=DIRECTION('',(0.,0.,-1.));
#343=DIRECTION('',(-1.,0.,0.));
#344=DIRECTION('',(0.,0.,-1.));
#345=DIRECTION('',(-1.,0.,0.));
#346=DIRECTION('',(0.,0.,-1.));
#347=DIRECTION('',(-1.,0.,0.));
#348=DIRECTION('',(0.,0.,-1.));
#349=DIRECTION('',(-1.,0.,0.));
#350=DIRECTION('',(0.,0.,-1.));
#351=DIRECTION('',(-1.,0.,0.));
#352=DIRECTION('',(0.,0.,-1.));
#353=DIRECTION('',(-1.,0.,0.));
#354=DIRECTION('',(0.,0.,-1.));
#355=DIRECTION('',(-1.,0.,0.));
#356=DIRECTION('',(0.,0.,-1.));
#357=DIRECTION('',(-1.,0.,0.));
#358=DIRECTION('',(0.,0.,-1.));
#359=DIRECTION('',(-1.,0.,0.));
#360=DIRECTION('',(0.,0.,-1.));
#361=DIRECTION('',(-1.,0.,0.));
#362=DIRECTION('',(0.,0.,-1.));
#363=DIRECTION('',(-1.,0.,0.));
#364=DIRECTION('',(0.,0.,-1.));
#365=DIRECTION('',(-1.,0.,0.));
#366=DIRECTION('',(0.,0.,-1.));
#367=DIRECTION('',(-1.,0.,0.));
#368=DIRECTION('',(0.,0.,-1.));
#369=DIRECTION('',(-1.,0.,0.));
#370=DIRECTION('',(0.,0.,-1.));
#371=DIRECTION('',(-1.,0.,0.));
#372=DIRECTION('',(0.,0.,1.));
#373=DIRECTION('',(1.,0.,0.));
#374=DIRECTION('',(0.,0.,-1.));
#375=DIRECTION('',(-1.,0.,0.));
#376=DIRECTION('',(0.,0.,1.));
#377=DIRECTION('',(1.,0.,0.));
#378=DIRECTION('',(0.,0.,-1.));
#379=DIRECTION('',(-1.,0.,0.));
#380=DIRECTION('',(0.,0.,-1.));
#381=DIRECTION('',(-1.,0.,0.));
#382=DIRECTION('',(0.,0.,-1.));
#383=DIRECTION('',(-1.,0.,0.));
#384=DIRECTION('',(0.,0.,-1.));
#385=DIRECTION('',(-1.,0.,0.));
#386=DIRECTION('',(0.,0.,-1.));
#387=DIRECTION('',(-1.,0.,0.));
#388=DIRECTION('',(0.,0.,-1.));
#389=DIRECTION('',(-1.,0.,0.));
#390=DIRECTION('',(0.,0.,-1.));
#391=DIRECTION('',(-1.,0.,0.));
#392=DIRECTION('',(0.,0.,-1.));
#393=DIRECTION('',(-1.,0.,0.));
#394=DIRECTION('',(0.,0.,-1.));
#395=DIRECTION('',(-1.,0.,0.));
#396=DIRECTION('',(0.,0.,1.));
#397=DIRECTION('',(1.,0.,0.));
#398=DIRECTION('',(0.,0.,-1.));
#399=DIRECTION('',(-1.,0.,0.));
#400=DIRECTION('',(0.,0.,-1.));
#401=DIRECTION('',(-1.,0.,0.));
#402=DIRECTION('',(0.,0.,-1.));
#403=DIRECTION('',(-1.,0.,0.));
#404=DIRECTION('',(0.,0.,-1.));
#405=DIRECTION('',(-1.,0.,0.));
#406=DIRECTION('',(0.,0.,-1.));
#407=DIRECTION('',(-1.,0.,0.));
#408=DIRECTION('',(0.,0.,1.));
#409=DIRECTION('',(1.,0.,0.));
#410=DIRECTION('',(0.,0.,-1.));
#411=DIRECTION('',(-1.,0.,0.));
#412=DIRECTION('',(0.,0.,-1.));
#413=DIRECTION('',(-1.,0.,0.));
#414=DIRECTION('',(0.,0.,-1.));
#415=DIRECTION('',(-1.,0.,0.));
#416=DIRECTION('',(0.,0.,1.));
#417=DIRECTION('',(1.,0.,0.));
#418=DIRECTION('',(0.,0.,-1.));
#419=DIRECTION('',(-1.,0.,0.));
#420=DIRECTION('',(0.,0.,1.));
#421=DIRECTION('',(1.,0.,0.));
#422=DIRECTION('',(0.,0.,-1.));
#423=DIRECTION('',(-1.,0.,0.));
#424=DIRECTION('',(0.,0.,-1.));
#425=DIRECTION('',(-1.,0.,0.));
#426=CARTESIAN_POINT('',(0.,0.,0.));
#427=CARTESIAN_POINT('',(0.,0.,47.));
#428=CARTESIAN_POINT('',(0.,0.,47.));
#429=CARTESIAN_POINT('',(-4.,0.,47.));
#430=CARTESIAN_POINT('',(0.,0.,47.));
#431=CARTESIAN_POINT('',(-3.8,0.,47.));
#432=CARTESIAN_POINT('',(0.,0.,46.));
#433=CARTESIAN_POINT('',(0.,0.,46.));
#434=CARTESIAN_POINT('',(-5.,0.,46.));
#435=CARTESIAN_POINT('',(0.,0.,0.));
#436=CARTESIAN_POINT('',(0.,0.,41.95));
#437=CARTESIAN_POINT('',(-5.,0.,41.95));
#438=CARTESIAN_POINT('',(0.,0.,41.95));
#439=CARTESIAN_POINT('',(0.,0.,40.95));
#440=CARTESIAN_POINT('',(-6.,0.,40.95));
#441=CARTESIAN_POINT('',(0.,0.,0.));
#442=CARTESIAN_POINT('',(0.,0.,40.));
#443=CARTESIAN_POINT('',(-6.,0.,40.));
#444=CARTESIAN_POINT('',(0.,0.,37.586046659446));
#445=CARTESIAN_POINT('',(0.,0.,38.85));
#446=CARTESIAN_POINT('',(-4.875,0.,38.85));
#447=CARTESIAN_POINT('',(0.,0.,0.));
#448=CARTESIAN_POINT('',(0.,0.,36.55));
#449=CARTESIAN_POINT('',(-4.875,0.,36.55));
#450=CARTESIAN_POINT('',(0.,0.,37.8840926023008));
#451=CARTESIAN_POINT('',(0.,0.,35.45));
#452=CARTESIAN_POINT('',(-6.,0.,35.45));
#453=CARTESIAN_POINT('',(0.,0.,0.));
#454=CARTESIAN_POINT('',(0.,0.,24.3));
#455=CARTESIAN_POINT('',(-6.,0.,24.3));
#456=CARTESIAN_POINT('',(0.,0.,24.3));
#457=CARTESIAN_POINT('',(0.,0.,24.1));
#458=CARTESIAN_POINT('',(-5.8,0.,24.1));
#459=CARTESIAN_POINT('',(0.,5.8,24.1));
#460=CARTESIAN_POINT('',(0.,0.,24.1));
#461=CARTESIAN_POINT('',(-5.5,0.,24.1));
#462=CARTESIAN_POINT('',(0.,0.,23.1));
#463=CARTESIAN_POINT('',(0.,0.,23.1));
#464=CARTESIAN_POINT('',(-4.5,0.,23.1));
#465=CARTESIAN_POINT('',(0.,0.,0.));
#466=CARTESIAN_POINT('',(0.,0.,9.));
#467=CARTESIAN_POINT('',(-4.5,0.,9.));
#468=CARTESIAN_POINT('',(0.,4.5,9.));
#469=CARTESIAN_POINT('',(0.,0.,9.));
#470=CARTESIAN_POINT('',(-4.8,0.,9.));
#471=CARTESIAN_POINT('',(0.,0.,8.8));
#472=CARTESIAN_POINT('',(0.,0.,8.79999999999999));
#473=CARTESIAN_POINT('',(-5.,0.,8.79999999999999));
#474=CARTESIAN_POINT('',(0.,0.,8.79999999999999));
#475=CARTESIAN_POINT('',(0.,0.,5.));
#476=CARTESIAN_POINT('',(-4.53341866856896,0.,5.));
#477=CARTESIAN_POINT('',(0.,4.53341866856896,5.));
#478=CARTESIAN_POINT('',(0.,0.,5.));
#479=CARTESIAN_POINT('',(-4.8,0.,5.));
#480=CARTESIAN_POINT('',(0.,0.,4.8));
#481=CARTESIAN_POINT('',(0.,0.,4.8));
#482=CARTESIAN_POINT('',(-5.,0.,4.8));
#483=CARTESIAN_POINT('',(0.,0.,4.8));
#484=CARTESIAN_POINT('',(0.,0.,0.351252262637942));
#485=CARTESIAN_POINT('',(-4.45376246250021,0.,0.351252262637942));
#486=CARTESIAN_POINT('',(0.,0.,0.399999999999998));
#487=CARTESIAN_POINT('',(0.,0.,-1.0842021724855E-16));
#488=CARTESIAN_POINT('',(-4.05674400184368,0.,-1.0842021724855E-16));
#489=CARTESIAN_POINT('',(0.,4.05674400184368,-5.42101086242752E-17));
#490=CARTESIAN_POINT('',(0.,0.,0.));
#491=CARTESIAN_POINT('',(-3.5,0.,0.));
#492=CARTESIAN_POINT('',(0.,0.,47.));
#493=CARTESIAN_POINT('',(0.,0.,46.7));
#494=CARTESIAN_POINT('',(-3.5,0.,46.7));
#495=CARTESIAN_POINT('',(0.,0.,0.));
#496=MECHANICAL_DESIGN_GEOMETRIC_PRESENTATION_REPRESENTATION('',(#274),
#497);
#497=(
GEOMETRIC_REPRESENTATION_CONTEXT(3)
GLOBAL_UNCERTAINTY_ASSIGNED_CONTEXT((#498))
GLOBAL_UNIT_ASSIGNED_CONTEXT((#501,#500,#499))
REPRESENTATION_CONTEXT('2153 KS4-N-9','TOP_LEVEL_ASSEMBLY_PART')
);
#498=UNCERTAINTY_MEASURE_WITH_UNIT(LENGTH_MEASURE(0.005),#501,
'DISTANCE_ACCURACY_VALUE','Maximum Tolerance applied to model');
#499=(
NAMED_UNIT(*)
SI_UNIT($,.STERADIAN.)
SOLID_ANGLE_UNIT()
);
#500=(
NAMED_UNIT(*)
PLANE_ANGLE_UNIT()
SI_UNIT($,.RADIAN.)
);
#501=(
LENGTH_UNIT()
NAMED_UNIT(*)
SI_UNIT(.MILLI.,.METRE.)
);
#502=PRODUCT_DEFINITION_SHAPE('','',#503);
#503=PRODUCT_DEFINITION('','',#505,#504);
#504=PRODUCT_DEFINITION_CONTEXT('',#511,'design');
#505=PRODUCT_DEFINITION_FORMATION_WITH_SPECIFIED_SOURCE('','',#507,
 .NOT_KNOWN.);
#506=PRODUCT_RELATED_PRODUCT_CATEGORY('','',(#507));
#507=PRODUCT('2153 KS4-N-9','2153 KS4-N-9','2153 KS4-N-9',(#509));
#508=PRODUCT_CATEGORY('','');
#509=PRODUCT_CONTEXT('',#511,'mechanical');
#510=APPLICATION_PROTOCOL_DEFINITION('international standard',
'automotive_design',2010,#511);
#511=APPLICATION_CONTEXT(
'core data for automotive mechanical design processes');
ENDSEC;
END-ISO-10303-21;
