ISO-10303-21;
HEADER;
/* Generated by software containing ST-Developer
 * from STEP Tools, Inc. (www.steptools.com) 
 */
/* OPTION: using custom renumber hook */

FILE_DESCRIPTION(
/* description */ ('STEP AP214'),
/* implementation_level */ '2;1');

FILE_NAME(
/* name */ '2107_GRM-1_8',
/* time_stamp */ '2024-08-22T15:34:42+02:00',
/* author */ ('License CC BY-ND 4.0'),
/* organization */ ('CADENAS'),
/* preprocessor_version */ 'ST-DEVELOPER v19.3',
/* originating_system */ 'PARTsolutions',
/* authorisation */ '  ');

FILE_SCHEMA (('AUTOMOTIVE_DESIGN {1 0 10303 214 3 1 1}'));
ENDSEC;

DATA;
#10=PROPERTY_DEFINITION_REPRESENTATION(#14,#12);
#11=PROPERTY_DEFINITION_REPRESENTATION(#15,#13);
#12=REPRESENTATION('',(#16),#389);
#13=REPRESENTATION('',(#17),#389);
#14=PROPERTY_DEFINITION('pmi validation property','',#394);
#15=PROPERTY_DEFINITION('pmi validation property','',#394);
#16=VALUE_REPRESENTATION_ITEM('number of annotations',COUNT_MEASURE(0.));
#17=VALUE_REPRESENTATION_ITEM('number of views',COUNT_MEASURE(0.));
#18=SHAPE_REPRESENTATION_RELATIONSHIP('','',#217,#19);
#19=ADVANCED_BREP_SHAPE_REPRESENTATION('',(#215),#389);
#20=LINE('',#377,#26);
#21=LINE('',#378,#27);
#22=LINE('',#380,#28);
#23=LINE('',#382,#29);
#24=LINE('',#384,#30);
#25=LINE('',#386,#31);
#26=VECTOR('',#268,1000.);
#27=VECTOR('',#269,1000.);
#28=VECTOR('',#272,1000.);
#29=VECTOR('',#275,1000.);
#30=VECTOR('',#278,1000.);
#31=VECTOR('',#281,1000.);
#32=CYLINDRICAL_SURFACE('',#229,5.4585);
#33=B_SPLINE_CURVE_WITH_KNOTS('',3,(#291,#292,#293,#294,#295),
 .UNSPECIFIED.,.F.,.F.,(4,1,4),(2.30940107676387E-7,0.00548505849740912,
0.0109698860547106),.UNSPECIFIED.);
#34=B_SPLINE_CURVE_WITH_KNOTS('',3,(#298,#299,#300,#301,#302),
 .UNSPECIFIED.,.F.,.F.,(4,1,4),(2.30940107675986E-7,0.00548505849740912,
0.0109698860547106),.UNSPECIFIED.);
#35=B_SPLINE_CURVE_WITH_KNOTS('',3,(#304,#305,#306,#307,#308),
 .UNSPECIFIED.,.F.,.F.,(4,1,4),(0.0111685659811065,0.0166221252122939,0.0220756844434814),
 .UNSPECIFIED.);
#36=B_SPLINE_CURVE_WITH_KNOTS('',3,(#310,#311,#312,#313,#314),
 .UNSPECIFIED.,.F.,.F.,(4,1,4),(2.30940107676387E-7,0.00548505849740912,
0.0109698860547106),.UNSPECIFIED.);
#37=B_SPLINE_CURVE_WITH_KNOTS('',3,(#316,#317,#318,#319,#320),
 .UNSPECIFIED.,.F.,.F.,(4,1,4),(2.30940107675914E-7,0.00548505849740912,
0.0109698860547106),.UNSPECIFIED.);
#38=B_SPLINE_CURVE_WITH_KNOTS('',3,(#322,#323,#324,#325,#326),
 .UNSPECIFIED.,.F.,.F.,(4,1,4),(0.0111685659811065,0.0166221252122939,0.0220756844434814),
 .UNSPECIFIED.);
#39=B_SPLINE_CURVE_WITH_KNOTS('',3,(#330,#331,#332,#333,#334),
 .UNSPECIFIED.,.F.,.F.,(4,1,4),(2.30940107675961E-7,0.00548505849740912,
0.0109698860547106),.UNSPECIFIED.);
#40=B_SPLINE_CURVE_WITH_KNOTS('',3,(#337,#338,#339,#340,#341),
 .UNSPECIFIED.,.F.,.F.,(4,1,4),(0.0111685659811065,0.0166221252122939,0.0220756844434814),
 .UNSPECIFIED.);
#41=B_SPLINE_CURVE_WITH_KNOTS('',3,(#343,#344,#345,#346,#347),
 .UNSPECIFIED.,.F.,.F.,(4,1,4),(2.30940107676387E-7,0.00548505849740912,
0.0109698860547106),.UNSPECIFIED.);
#42=B_SPLINE_CURVE_WITH_KNOTS('',3,(#349,#350,#351,#352,#353),
 .UNSPECIFIED.,.F.,.F.,(4,1,4),(2.30940107675961E-7,0.00548505849740912,
0.0109698860547106),.UNSPECIFIED.);
#43=B_SPLINE_CURVE_WITH_KNOTS('',3,(#355,#356,#357,#358,#359),
 .UNSPECIFIED.,.F.,.F.,(4,1,4),(0.0111685659811065,0.0166221252122939,0.0220756844434814),
 .UNSPECIFIED.);
#44=B_SPLINE_CURVE_WITH_KNOTS('',3,(#361,#362,#363,#364,#365),
 .UNSPECIFIED.,.F.,.F.,(4,1,4),(2.30940107676387E-7,0.00548505849740912,
0.0109698860547106),.UNSPECIFIED.);
#45=CONICAL_SURFACE('',#222,9.25,1.30899693899575);
#46=CONICAL_SURFACE('',#223,11.4,1.30899693899575);
#47=CONICAL_SURFACE('',#227,6.,0.785398163397448);
#48=CONICAL_SURFACE('',#231,5.4585,0.785398163397449);
#49=ORIENTED_EDGE('',*,*,#97,.F.);
#50=ORIENTED_EDGE('',*,*,#98,.T.);
#51=ORIENTED_EDGE('',*,*,#99,.T.);
#52=ORIENTED_EDGE('',*,*,#100,.T.);
#53=ORIENTED_EDGE('',*,*,#101,.T.);
#54=ORIENTED_EDGE('',*,*,#102,.T.);
#55=ORIENTED_EDGE('',*,*,#103,.T.);
#56=ORIENTED_EDGE('',*,*,#104,.T.);
#57=ORIENTED_EDGE('',*,*,#97,.T.);
#58=ORIENTED_EDGE('',*,*,#105,.F.);
#59=ORIENTED_EDGE('',*,*,#106,.T.);
#60=ORIENTED_EDGE('',*,*,#107,.T.);
#61=ORIENTED_EDGE('',*,*,#108,.T.);
#62=ORIENTED_EDGE('',*,*,#109,.T.);
#63=ORIENTED_EDGE('',*,*,#110,.T.);
#64=ORIENTED_EDGE('',*,*,#111,.T.);
#65=ORIENTED_EDGE('',*,*,#112,.F.);
#66=ORIENTED_EDGE('',*,*,#105,.T.);
#67=ORIENTED_EDGE('',*,*,#113,.T.);
#68=ORIENTED_EDGE('',*,*,#98,.F.);
#69=ORIENTED_EDGE('',*,*,#114,.T.);
#70=ORIENTED_EDGE('',*,*,#113,.F.);
#71=ORIENTED_EDGE('',*,*,#112,.T.);
#72=ORIENTED_EDGE('',*,*,#114,.F.);
#73=ORIENTED_EDGE('',*,*,#115,.T.);
#74=ORIENTED_EDGE('',*,*,#107,.F.);
#75=ORIENTED_EDGE('',*,*,#116,.F.);
#76=ORIENTED_EDGE('',*,*,#101,.F.);
#77=ORIENTED_EDGE('',*,*,#117,.T.);
#78=ORIENTED_EDGE('',*,*,#108,.F.);
#79=ORIENTED_EDGE('',*,*,#115,.F.);
#80=ORIENTED_EDGE('',*,*,#100,.F.);
#81=ORIENTED_EDGE('',*,*,#118,.T.);
#82=ORIENTED_EDGE('',*,*,#109,.F.);
#83=ORIENTED_EDGE('',*,*,#117,.F.);
#84=ORIENTED_EDGE('',*,*,#99,.F.);
#85=ORIENTED_EDGE('',*,*,#119,.T.);
#86=ORIENTED_EDGE('',*,*,#110,.F.);
#87=ORIENTED_EDGE('',*,*,#118,.F.);
#88=ORIENTED_EDGE('',*,*,#104,.F.);
#89=ORIENTED_EDGE('',*,*,#120,.T.);
#90=ORIENTED_EDGE('',*,*,#111,.F.);
#91=ORIENTED_EDGE('',*,*,#119,.F.);
#92=ORIENTED_EDGE('',*,*,#103,.F.);
#93=ORIENTED_EDGE('',*,*,#116,.T.);
#94=ORIENTED_EDGE('',*,*,#106,.F.);
#95=ORIENTED_EDGE('',*,*,#120,.F.);
#96=ORIENTED_EDGE('',*,*,#102,.F.);
#97=EDGE_CURVE('',#121,#121,#139,.T.);
#98=EDGE_CURVE('',#122,#122,#140,.T.);
#99=EDGE_CURVE('',#123,#124,#33,.T.);
#100=EDGE_CURVE('',#124,#125,#34,.T.);
#101=EDGE_CURVE('',#125,#126,#35,.T.);
#102=EDGE_CURVE('',#126,#127,#36,.T.);
#103=EDGE_CURVE('',#127,#128,#37,.T.);
#104=EDGE_CURVE('',#128,#123,#38,.T.);
#105=EDGE_CURVE('',#129,#129,#141,.T.);
#106=EDGE_CURVE('',#130,#131,#39,.T.);
#107=EDGE_CURVE('',#131,#132,#40,.T.);
#108=EDGE_CURVE('',#132,#133,#41,.T.);
#109=EDGE_CURVE('',#133,#134,#42,.T.);
#110=EDGE_CURVE('',#134,#135,#43,.T.);
#111=EDGE_CURVE('',#135,#130,#44,.T.);
#112=EDGE_CURVE('',#136,#136,#142,.T.);
#113=EDGE_CURVE('',#137,#137,#143,.T.);
#114=EDGE_CURVE('',#138,#138,#144,.T.);
#115=EDGE_CURVE('',#125,#132,#20,.T.);
#116=EDGE_CURVE('',#126,#131,#21,.T.);
#117=EDGE_CURVE('',#124,#133,#22,.T.);
#118=EDGE_CURVE('',#123,#134,#23,.T.);
#119=EDGE_CURVE('',#128,#135,#24,.T.);
#120=EDGE_CURVE('',#127,#130,#25,.T.);
#121=VERTEX_POINT('',#287);
#122=VERTEX_POINT('',#289);
#123=VERTEX_POINT('',#296);
#124=VERTEX_POINT('',#297);
#125=VERTEX_POINT('',#303);
#126=VERTEX_POINT('',#309);
#127=VERTEX_POINT('',#315);
#128=VERTEX_POINT('',#321);
#129=VERTEX_POINT('',#329);
#130=VERTEX_POINT('',#335);
#131=VERTEX_POINT('',#336);
#132=VERTEX_POINT('',#342);
#133=VERTEX_POINT('',#348);
#134=VERTEX_POINT('',#354);
#135=VERTEX_POINT('',#360);
#136=VERTEX_POINT('',#368);
#137=VERTEX_POINT('',#371);
#138=VERTEX_POINT('',#374);
#139=CIRCLE('',#220,9.25);
#140=CIRCLE('',#221,6.);
#141=CIRCLE('',#224,9.25);
#142=CIRCLE('',#226,6.);
#143=CIRCLE('',#228,5.4585);
#144=CIRCLE('',#230,5.4585);
#145=EDGE_LOOP('',(#49));
#146=EDGE_LOOP('',(#50));
#147=EDGE_LOOP('',(#51,#52,#53,#54,#55,#56));
#148=EDGE_LOOP('',(#57));
#149=EDGE_LOOP('',(#58));
#150=EDGE_LOOP('',(#59,#60,#61,#62,#63,#64));
#151=EDGE_LOOP('',(#65));
#152=EDGE_LOOP('',(#66));
#153=EDGE_LOOP('',(#67));
#154=EDGE_LOOP('',(#68));
#155=EDGE_LOOP('',(#69));
#156=EDGE_LOOP('',(#70));
#157=EDGE_LOOP('',(#71));
#158=EDGE_LOOP('',(#72));
#159=EDGE_LOOP('',(#73,#74,#75,#76));
#160=EDGE_LOOP('',(#77,#78,#79,#80));
#161=EDGE_LOOP('',(#81,#82,#83,#84));
#162=EDGE_LOOP('',(#85,#86,#87,#88));
#163=EDGE_LOOP('',(#89,#90,#91,#92));
#164=EDGE_LOOP('',(#93,#94,#95,#96));
#165=FACE_BOUND('',#145,.T.);
#166=FACE_BOUND('',#146,.T.);
#167=FACE_BOUND('',#147,.T.);
#168=FACE_BOUND('',#148,.T.);
#169=FACE_BOUND('',#149,.T.);
#170=FACE_BOUND('',#150,.T.);
#171=FACE_BOUND('',#151,.T.);
#172=FACE_BOUND('',#152,.T.);
#173=FACE_BOUND('',#153,.T.);
#174=FACE_BOUND('',#154,.T.);
#175=FACE_BOUND('',#155,.T.);
#176=FACE_BOUND('',#156,.T.);
#177=FACE_BOUND('',#157,.T.);
#178=FACE_BOUND('',#158,.T.);
#179=FACE_BOUND('',#159,.T.);
#180=FACE_BOUND('',#160,.T.);
#181=FACE_BOUND('',#161,.T.);
#182=FACE_BOUND('',#162,.T.);
#183=FACE_BOUND('',#163,.T.);
#184=FACE_BOUND('',#164,.T.);
#185=PLANE('',#219);
#186=PLANE('',#225);
#187=PLANE('',#232);
#188=PLANE('',#233);
#189=PLANE('',#234);
#190=PLANE('',#235);
#191=PLANE('',#236);
#192=PLANE('',#237);
#193=ADVANCED_FACE('',(#165,#166),#185,.F.);
#194=ADVANCED_FACE('',(#167,#168),#45,.T.);
#195=ADVANCED_FACE('',(#169,#170),#46,.T.);
#196=ADVANCED_FACE('',(#171,#172),#186,.F.);
#197=ADVANCED_FACE('',(#173,#174),#47,.F.);
#198=ADVANCED_FACE('',(#175,#176),#32,.F.);
#199=ADVANCED_FACE('',(#177,#178),#48,.F.);
#200=ADVANCED_FACE('',(#179),#187,.F.);
#201=ADVANCED_FACE('',(#180),#188,.F.);
#202=ADVANCED_FACE('',(#181),#189,.F.);
#203=ADVANCED_FACE('',(#182),#190,.F.);
#204=ADVANCED_FACE('',(#183),#191,.F.);
#205=ADVANCED_FACE('',(#184),#192,.F.);
#206=CLOSED_SHELL('',(#193,#194,#195,#196,#197,#198,#199,#200,#201,#202,
#203,#204,#205));
#207=STYLED_ITEM('',(#208),#215);
#208=PRESENTATION_STYLE_ASSIGNMENT((#209));
#209=SURFACE_STYLE_USAGE(.BOTH.,#210);
#210=SURFACE_SIDE_STYLE('',(#211));
#211=SURFACE_STYLE_FILL_AREA(#212);
#212=FILL_AREA_STYLE('',(#213));
#213=FILL_AREA_STYLE_COLOUR('',#214);
#214=COLOUR_RGB('',0.689999997615814,0.689999997615814,0.689999997615814);
#215=MANIFOLD_SOLID_BREP('2107 GRM-1/8',#206);
#216=SHAPE_DEFINITION_REPRESENTATION(#394,#217);
#217=SHAPE_REPRESENTATION('2107 GRM-1/8',(#218),#389);
#218=AXIS2_PLACEMENT_3D('',#284,#238,#239);
#219=AXIS2_PLACEMENT_3D('',#285,#240,#241);
#220=AXIS2_PLACEMENT_3D('',#286,#242,#243);
#221=AXIS2_PLACEMENT_3D('',#288,#244,#245);
#222=AXIS2_PLACEMENT_3D('',#290,#246,#247);
#223=AXIS2_PLACEMENT_3D('',#327,#248,#249);
#224=AXIS2_PLACEMENT_3D('',#328,#250,#251);
#225=AXIS2_PLACEMENT_3D('',#366,#252,#253);
#226=AXIS2_PLACEMENT_3D('',#367,#254,#255);
#227=AXIS2_PLACEMENT_3D('',#369,#256,#257);
#228=AXIS2_PLACEMENT_3D('',#370,#258,#259);
#229=AXIS2_PLACEMENT_3D('',#372,#260,#261);
#230=AXIS2_PLACEMENT_3D('',#373,#262,#263);
#231=AXIS2_PLACEMENT_3D('',#375,#264,#265);
#232=AXIS2_PLACEMENT_3D('',#376,#266,#267);
#233=AXIS2_PLACEMENT_3D('',#379,#270,#271);
#234=AXIS2_PLACEMENT_3D('',#381,#273,#274);
#235=AXIS2_PLACEMENT_3D('',#383,#276,#277);
#236=AXIS2_PLACEMENT_3D('',#385,#279,#280);
#237=AXIS2_PLACEMENT_3D('',#387,#282,#283);
#238=DIRECTION('',(0.,0.,1.));
#239=DIRECTION('',(1.,0.,0.));
#240=DIRECTION('',(0.,0.,-1.));
#241=DIRECTION('',(-1.,0.,0.));
#242=DIRECTION('',(0.,0.,-1.));
#243=DIRECTION('',(-1.,0.,0.));
#244=DIRECTION('',(0.,0.,-1.));
#245=DIRECTION('',(-1.,0.,0.));
#246=DIRECTION('',(0.,0.,-1.));
#247=DIRECTION('',(-1.,0.,0.));
#248=DIRECTION('',(0.,0.,1.));
#249=DIRECTION('',(1.,0.,0.));
#250=DIRECTION('',(0.,0.,-1.));
#251=DIRECTION('',(-1.,0.,0.));
#252=DIRECTION('',(0.,0.,1.));
#253=DIRECTION('',(1.,0.,0.));
#254=DIRECTION('',(0.,0.,-1.));
#255=DIRECTION('',(-1.,0.,0.));
#256=DIRECTION('',(0.,0.,1.));
#257=DIRECTION('',(1.,0.,0.));
#258=DIRECTION('',(0.,0.,-1.));
#259=DIRECTION('',(-1.,0.,0.));
#260=DIRECTION('',(0.,0.,-1.));
#261=DIRECTION('',(-1.,0.,0.));
#262=DIRECTION('',(0.,0.,-1.));
#263=DIRECTION('',(-1.,0.,0.));
#264=DIRECTION('',(0.,0.,-1.));
#265=DIRECTION('',(-1.,0.,0.));
#266=DIRECTION('',(1.,0.,0.));
#267=DIRECTION('',(0.,0.,-1.));
#268=DIRECTION('',(0.,0.,-1.));
#269=DIRECTION('',(0.,0.,-1.));
#270=DIRECTION('',(0.5,-0.866025403784439,0.));
#271=DIRECTION('',(0.866025403784439,0.5,0.));
#272=DIRECTION('',(0.,0.,-1.));
#273=DIRECTION('',(-0.5,-0.866025403784439,0.));
#274=DIRECTION('',(0.866025403784439,-0.5,0.));
#275=DIRECTION('',(0.,0.,-1.));
#276=DIRECTION('',(-1.,0.,0.));
#277=DIRECTION('',(0.,0.,1.));
#278=DIRECTION('',(0.,0.,-1.));
#279=DIRECTION('',(-0.5,0.866025403784439,0.));
#280=DIRECTION('',(-0.866025403784439,-0.5,0.));
#281=DIRECTION('',(0.,0.,-1.));
#282=DIRECTION('',(0.5,0.866025403784439,0.));
#283=DIRECTION('',(-0.866025403784439,0.5,0.));
#284=CARTESIAN_POINT('',(0.,0.,0.));
#285=CARTESIAN_POINT('',(0.,0.,3.));
#286=CARTESIAN_POINT('',(0.,0.,3.));
#287=CARTESIAN_POINT('',(-9.25,0.,3.));
#288=CARTESIAN_POINT('',(0.,0.,3.));
#289=CARTESIAN_POINT('',(-6.,0.,3.));
#290=CARTESIAN_POINT('',(0.,0.,3.));
#291=CARTESIAN_POINT('',(9.5,5.48482755730145,2.53921980078226));
#292=CARTESIAN_POINT('',(7.91666666666667,6.39896548351835,2.78416231988274));
#293=CARTESIAN_POINT('',(4.75,8.22724133595217,3.0818630839017));
#294=CARTESIAN_POINT('',(1.58333333333333,10.055517188386,2.78416231988274));
#295=CARTESIAN_POINT('',(-1.44249380045162E-15,10.9696551146029,2.53921980078226));
#296=CARTESIAN_POINT('',(9.5,5.48482755730145,2.53921980078211));
#297=CARTESIAN_POINT('',(0.,10.9696551146029,2.53921980078211));
#298=CARTESIAN_POINT('',(-5.9241434700129E-17,10.9696551146029,2.53921980078226));
#299=CARTESIAN_POINT('',(-1.58333333333333,10.055517188386,2.78416231988274));
#300=CARTESIAN_POINT('',(-4.75,8.22724133595217,3.0818630839017));
#301=CARTESIAN_POINT('',(-7.91666666666667,6.39896548351835,2.78416231988274));
#302=CARTESIAN_POINT('',(-9.5,5.48482755730145,2.53921980078226));
#303=CARTESIAN_POINT('',(-9.5,5.48482755730145,2.53921980078211));
#304=CARTESIAN_POINT('',(-9.5,5.48482755730145,2.53921980078211));
#305=CARTESIAN_POINT('',(-9.5,3.68302318625779,2.78061581385211));
#306=CARTESIAN_POINT('',(-9.5,0.0604032181329426,3.08337774152539));
#307=CARTESIAN_POINT('',(-9.5,-3.65328772906293,2.78459960972308));
#308=CARTESIAN_POINT('',(-9.5,-5.48482755730144,2.53921980078211));
#309=CARTESIAN_POINT('',(-9.5,-5.48482755730145,2.53921980078211));
#310=CARTESIAN_POINT('',(-9.5,-5.48482755730145,2.53921980078226));
#311=CARTESIAN_POINT('',(-7.91666666666667,-6.39896548351835,2.78416231988274));
#312=CARTESIAN_POINT('',(-4.75,-8.22724133595217,3.0818630839017));
#313=CARTESIAN_POINT('',(-1.58333333333333,-10.055517188386,2.78416231988274));
#314=CARTESIAN_POINT('',(1.44249380045162E-15,-10.9696551146029,2.53921980078226));
#315=CARTESIAN_POINT('',(-1.10679022795982E-16,-10.9696551146029,2.53921980078211));
#316=CARTESIAN_POINT('',(1.25479163021232E-17,-10.9696551146029,2.53921980078226));
#317=CARTESIAN_POINT('',(1.58333333333333,-10.055517188386,2.78416231988274));
#318=CARTESIAN_POINT('',(4.75,-8.22724133595217,3.0818630839017));
#319=CARTESIAN_POINT('',(7.91666666666667,-6.39896548351835,2.78416231988274));
#320=CARTESIAN_POINT('',(9.5,-5.48482755730145,2.53921980078226));
#321=CARTESIAN_POINT('',(9.5,-5.48482755730145,2.53921980078211));
#322=CARTESIAN_POINT('',(9.5,-5.48482755730145,2.53921980078211));
#323=CARTESIAN_POINT('',(9.5,-3.68302318625779,2.78061581385211));
#324=CARTESIAN_POINT('',(9.5,-0.0604032181329426,3.08337774152539));
#325=CARTESIAN_POINT('',(9.5,3.65328772906293,2.78459960972308));
#326=CARTESIAN_POINT('',(9.5,5.48482755730144,2.53921980078211));
#327=CARTESIAN_POINT('',(0.,0.,0.576090763726914));
#328=CARTESIAN_POINT('',(0.,0.,0.));
#329=CARTESIAN_POINT('',(-9.25,0.,0.));
#330=CARTESIAN_POINT('',(9.78281695048089E-17,-10.9696551146029,0.460780199217742));
#331=CARTESIAN_POINT('',(-1.58333333333333,-10.055517188386,0.21583768011726));
#332=CARTESIAN_POINT('',(-4.75,-8.22724133595216,-0.0818630839016993));
#333=CARTESIAN_POINT('',(-7.91666666666667,-6.39896548351835,0.215837680117261));
#334=CARTESIAN_POINT('',(-9.5,-5.48482755730145,0.460780199217743));
#335=CARTESIAN_POINT('',(0.,-10.9696551146029,0.460780199217894));
#336=CARTESIAN_POINT('',(-9.5,-5.48482755730145,0.460780199217894));
#337=CARTESIAN_POINT('',(-9.5,-5.48482755730145,0.460780199217895));
#338=CARTESIAN_POINT('',(-9.5,-3.68302318625778,0.219384186147886));
#339=CARTESIAN_POINT('',(-9.5,-0.0604032181329298,-0.0833777415253869));
#340=CARTESIAN_POINT('',(-9.5,3.65328772906293,0.215400390276921));
#341=CARTESIAN_POINT('',(-9.5,5.48482755730145,0.460780199217894));
#342=CARTESIAN_POINT('',(-9.5,5.48482755730145,0.460780199217894));
#343=CARTESIAN_POINT('',(-9.5,5.48482755730145,0.460780199217742));
#344=CARTESIAN_POINT('',(-7.91666666666667,6.39896548351835,0.215837680117261));
#345=CARTESIAN_POINT('',(-4.75,8.22724133595217,-0.0818630839016993));
#346=CARTESIAN_POINT('',(-1.58333333333333,10.055517188386,0.215837680117261));
#347=CARTESIAN_POINT('',(2.05219953097772E-15,10.9696551146029,0.460780199217742));
#348=CARTESIAN_POINT('',(0.,10.9696551146029,0.460780199217894));
#349=CARTESIAN_POINT('',(-9.78281695048089E-17,10.9696551146029,0.460780199217742));
#350=CARTESIAN_POINT('',(1.58333333333333,10.055517188386,0.21583768011726));
#351=CARTESIAN_POINT('',(4.75,8.22724133595216,-0.0818630839016993));
#352=CARTESIAN_POINT('',(7.91666666666667,6.39896548351835,0.215837680117261));
#353=CARTESIAN_POINT('',(9.5,5.48482755730145,0.460780199217743));
#354=CARTESIAN_POINT('',(9.5,5.48482755730145,0.460780199217894));
#355=CARTESIAN_POINT('',(9.5,5.48482755730145,0.460780199217895));
#356=CARTESIAN_POINT('',(9.5,3.68302318625778,0.219384186147886));
#357=CARTESIAN_POINT('',(9.5,0.0604032181329363,-0.0833777415253869));
#358=CARTESIAN_POINT('',(9.5,-3.65328772906294,0.21540039027692));
#359=CARTESIAN_POINT('',(9.5,-5.48482755730145,0.460780199217894));
#360=CARTESIAN_POINT('',(9.5,-5.48482755730145,0.460780199217894));
#361=CARTESIAN_POINT('',(9.5,-5.48482755730145,0.460780199217742));
#362=CARTESIAN_POINT('',(7.91666666666667,-6.39896548351835,0.215837680117261));
#363=CARTESIAN_POINT('',(4.75,-8.22724133595217,-0.0818630839016993));
#364=CARTESIAN_POINT('',(1.58333333333333,-10.055517188386,0.215837680117261));
#365=CARTESIAN_POINT('',(-2.05219953097772E-15,-10.9696551146029,0.460780199217742));
#366=CARTESIAN_POINT('',(0.,9.25,0.));
#367=CARTESIAN_POINT('',(0.,0.,0.));
#368=CARTESIAN_POINT('',(-6.,0.,0.));
#369=CARTESIAN_POINT('',(0.,0.,3.));
#370=CARTESIAN_POINT('',(0.,0.,2.4585));
#371=CARTESIAN_POINT('',(-5.4585,0.,2.4585));
#372=CARTESIAN_POINT('',(0.,0.,0.));
#373=CARTESIAN_POINT('',(0.,0.,0.5415));
#374=CARTESIAN_POINT('',(-5.4585,0.,0.5415));
#375=CARTESIAN_POINT('',(0.,0.,0.5415));
#376=CARTESIAN_POINT('',(-9.5,5.48482755730145,3.));
#377=CARTESIAN_POINT('',(-9.5,5.48482755730145,3.));
#378=CARTESIAN_POINT('',(-9.5,-5.48482755730145,3.));
#379=CARTESIAN_POINT('',(0.,10.9696551146029,3.));
#380=CARTESIAN_POINT('',(0.,10.9696551146029,3.));
#381=CARTESIAN_POINT('',(9.5,5.48482755730145,3.));
#382=CARTESIAN_POINT('',(9.5,5.48482755730145,3.));
#383=CARTESIAN_POINT('',(9.5,-5.48482755730145,3.));
#384=CARTESIAN_POINT('',(9.5,-5.48482755730145,3.));
#385=CARTESIAN_POINT('',(0.,-10.9696551146029,3.));
#386=CARTESIAN_POINT('',(0.,-10.9696551146029,3.));
#387=CARTESIAN_POINT('',(-9.5,-5.48482755730145,3.));
#388=MECHANICAL_DESIGN_GEOMETRIC_PRESENTATION_REPRESENTATION('',(#207),
#389);
#389=(
GEOMETRIC_REPRESENTATION_CONTEXT(3)
GLOBAL_UNCERTAINTY_ASSIGNED_CONTEXT((#390))
GLOBAL_UNIT_ASSIGNED_CONTEXT((#393,#392,#391))
REPRESENTATION_CONTEXT('2107 GRM-1/8','TOP_LEVEL_ASSEMBLY_PART')
);
#390=UNCERTAINTY_MEASURE_WITH_UNIT(LENGTH_MEASURE(0.005),#393,
'DISTANCE_ACCURACY_VALUE','Maximum Tolerance applied to model');
#391=(
NAMED_UNIT(*)
SI_UNIT($,.STERADIAN.)
SOLID_ANGLE_UNIT()
);
#392=(
NAMED_UNIT(*)
PLANE_ANGLE_UNIT()
SI_UNIT($,.RADIAN.)
);
#393=(
LENGTH_UNIT()
NAMED_UNIT(*)
SI_UNIT(.MILLI.,.METRE.)
);
#394=PRODUCT_DEFINITION_SHAPE('','',#395);
#395=PRODUCT_DEFINITION('','',#397,#396);
#396=PRODUCT_DEFINITION_CONTEXT('',#403,'design');
#397=PRODUCT_DEFINITION_FORMATION_WITH_SPECIFIED_SOURCE('','',#399,
 .NOT_KNOWN.);
#398=PRODUCT_RELATED_PRODUCT_CATEGORY('','',(#399));
#399=PRODUCT('2107 GRM-1/8','2107 GRM-1/8','2107 GRM-1/8',(#401));
#400=PRODUCT_CATEGORY('','');
#401=PRODUCT_CONTEXT('',#403,'mechanical');
#402=APPLICATION_PROTOCOL_DEFINITION('international standard',
'automotive_design',2010,#403);
#403=APPLICATION_CONTEXT(
'core data for automotive mechanical design processes');
ENDSEC;
END-ISO-10303-21;
