ISO-10303-21;
HEADER;
/* Generated by software containing ST-Developer
 * from STEP Tools, Inc. (www.steptools.com) 
 */
/* OPTION: using custom renumber hook */

FILE_DESCRIPTION(
/* description */ ('STEP AP214'),
/* implementation_level */ '2;1');

FILE_NAME(
/* name */ '191058_ESV-30-BU',
/* time_stamp */ '2024-08-28T10:54:06+02:00',
/* author */ ('License CC BY-ND 4.0'),
/* organization */ ('CADENAS'),
/* preprocessor_version */ 'ST-DEVELOPER v19.3',
/* originating_system */ 'PARTsolutions',
/* authorisation */ '  ');

FILE_SCHEMA (('AUTOMOTIVE_DESIGN {1 0 10303 214 3 1 1}'));
ENDSEC;

DATA;
#10=PROPERTY_DEFINITION_REPRESENTATION(#14,#12);
#11=PROPERTY_DEFINITION_REPRESENTATION(#15,#13);
#12=REPRESENTATION('',(#16),#457);
#13=REPRESENTATION('',(#17),#457);
#14=PROPERTY_DEFINITION('pmi validation property','',#462);
#15=PROPERTY_DEFINITION('pmi validation property','',#462);
#16=VALUE_REPRESENTATION_ITEM('number of annotations',COUNT_MEASURE(0.));
#17=VALUE_REPRESENTATION_ITEM('number of views',COUNT_MEASURE(0.));
#18=SHAPE_REPRESENTATION_RELATIONSHIP('','',#262,#19);
#19=ADVANCED_BREP_SHAPE_REPRESENTATION('',(#260),#457);
#20=TOROIDAL_SURFACE('',#273,10.4666916446772,0.499999999999999);
#21=TOROIDAL_SURFACE('',#277,7.5,0.499999999999998);
#22=TOROIDAL_SURFACE('',#287,8.05017907856027,0.499999999999999);
#23=TOROIDAL_SURFACE('',#291,12.5357154342381,0.499999999999998);
#24=TOROIDAL_SURFACE('',#295,9.5952380952381,1.5);
#25=TOROIDAL_SURFACE('',#303,7.,1.5);
#26=CONICAL_SURFACE('',#271,6.,1.14678800002036);
#27=CONICAL_SURFACE('',#275,10.725802343907,1.02602632569319);
#28=CONICAL_SURFACE('',#281,7.,1.13456678252756);
#29=CONICAL_SURFACE('',#283,14.7108088902206,0.698131700797725);
#30=CONICAL_SURFACE('',#285,15.,1.0317395948276);
#31=CONICAL_SURFACE('',#289,7.80253757613809,1.05263575756437);
#32=CONICAL_SURFACE('',#293,12.7413418290126,1.14696829592907);
#33=PLANE('',#267);
#34=PLANE('',#299);
#35=PLANE('',#305);
#36=ORIENTED_EDGE('',*,*,#78,.T.);
#37=ORIENTED_EDGE('',*,*,#79,.F.);
#38=ORIENTED_EDGE('',*,*,#80,.T.);
#39=ORIENTED_EDGE('',*,*,#78,.F.);
#40=ORIENTED_EDGE('',*,*,#81,.T.);
#41=ORIENTED_EDGE('',*,*,#80,.F.);
#42=ORIENTED_EDGE('',*,*,#82,.T.);
#43=ORIENTED_EDGE('',*,*,#81,.F.);
#44=ORIENTED_EDGE('',*,*,#82,.F.);
#45=ORIENTED_EDGE('',*,*,#83,.T.);
#46=ORIENTED_EDGE('',*,*,#84,.T.);
#47=ORIENTED_EDGE('',*,*,#83,.F.);
#48=ORIENTED_EDGE('',*,*,#85,.T.);
#49=ORIENTED_EDGE('',*,*,#84,.F.);
#50=ORIENTED_EDGE('',*,*,#86,.T.);
#51=ORIENTED_EDGE('',*,*,#85,.F.);
#52=ORIENTED_EDGE('',*,*,#87,.T.);
#53=ORIENTED_EDGE('',*,*,#86,.F.);
#54=ORIENTED_EDGE('',*,*,#88,.T.);
#55=ORIENTED_EDGE('',*,*,#87,.F.);
#56=ORIENTED_EDGE('',*,*,#89,.T.);
#57=ORIENTED_EDGE('',*,*,#88,.F.);
#58=ORIENTED_EDGE('',*,*,#89,.F.);
#59=ORIENTED_EDGE('',*,*,#90,.T.);
#60=ORIENTED_EDGE('',*,*,#91,.T.);
#61=ORIENTED_EDGE('',*,*,#90,.F.);
#62=ORIENTED_EDGE('',*,*,#92,.T.);
#63=ORIENTED_EDGE('',*,*,#91,.F.);
#64=ORIENTED_EDGE('',*,*,#93,.T.);
#65=ORIENTED_EDGE('',*,*,#92,.F.);
#66=ORIENTED_EDGE('',*,*,#93,.F.);
#67=ORIENTED_EDGE('',*,*,#94,.T.);
#68=ORIENTED_EDGE('',*,*,#95,.T.);
#69=ORIENTED_EDGE('',*,*,#94,.F.);
#70=ORIENTED_EDGE('',*,*,#96,.T.);
#71=ORIENTED_EDGE('',*,*,#95,.F.);
#72=ORIENTED_EDGE('',*,*,#97,.T.);
#73=ORIENTED_EDGE('',*,*,#96,.F.);
#74=ORIENTED_EDGE('',*,*,#98,.T.);
#75=ORIENTED_EDGE('',*,*,#97,.F.);
#76=ORIENTED_EDGE('',*,*,#79,.T.);
#77=ORIENTED_EDGE('',*,*,#98,.F.);
#78=EDGE_CURVE('',#99,#99,#120,.T.);
#79=EDGE_CURVE('',#100,#100,#121,.T.);
#80=EDGE_CURVE('',#101,#101,#122,.T.);
#81=EDGE_CURVE('',#102,#102,#123,.T.);
#82=EDGE_CURVE('',#103,#103,#124,.T.);
#83=EDGE_CURVE('',#104,#104,#125,.T.);
#84=EDGE_CURVE('',#105,#105,#126,.T.);
#85=EDGE_CURVE('',#106,#106,#127,.T.);
#86=EDGE_CURVE('',#107,#107,#128,.T.);
#87=EDGE_CURVE('',#108,#108,#129,.T.);
#88=EDGE_CURVE('',#109,#109,#130,.T.);
#89=EDGE_CURVE('',#110,#110,#131,.T.);
#90=EDGE_CURVE('',#111,#111,#132,.T.);
#91=EDGE_CURVE('',#112,#112,#133,.T.);
#92=EDGE_CURVE('',#113,#113,#134,.T.);
#93=EDGE_CURVE('',#114,#114,#135,.T.);
#94=EDGE_CURVE('',#115,#115,#136,.T.);
#95=EDGE_CURVE('',#116,#116,#137,.T.);
#96=EDGE_CURVE('',#117,#117,#138,.T.);
#97=EDGE_CURVE('',#118,#118,#139,.T.);
#98=EDGE_CURVE('',#119,#119,#140,.T.);
#99=VERTEX_POINT('',#395);
#100=VERTEX_POINT('',#397);
#101=VERTEX_POINT('',#400);
#102=VERTEX_POINT('',#403);
#103=VERTEX_POINT('',#406);
#104=VERTEX_POINT('',#409);
#105=VERTEX_POINT('',#412);
#106=VERTEX_POINT('',#415);
#107=VERTEX_POINT('',#418);
#108=VERTEX_POINT('',#421);
#109=VERTEX_POINT('',#424);
#110=VERTEX_POINT('',#427);
#111=VERTEX_POINT('',#430);
#112=VERTEX_POINT('',#433);
#113=VERTEX_POINT('',#436);
#114=VERTEX_POINT('',#439);
#115=VERTEX_POINT('',#442);
#116=VERTEX_POINT('',#445);
#117=VERTEX_POINT('',#448);
#118=VERTEX_POINT('',#451);
#119=VERTEX_POINT('',#454);
#120=CIRCLE('',#265,3.);
#121=CIRCLE('',#266,3.);
#122=CIRCLE('',#268,6.);
#123=CIRCLE('',#270,6.);
#124=CIRCLE('',#272,10.6724002078929);
#125=CIRCLE('',#274,10.725802343907);
#126=CIRCLE('',#276,7.24088930077028);
#127=CIRCLE('',#278,7.);
#128=CIRCLE('',#280,7.);
#129=CIRCLE('',#282,14.7108088902206);
#130=CIRCLE('',#284,15.);
#131=CIRCLE('',#286,7.79351572162768);
#132=CIRCLE('',#288,7.80253757613809);
#133=CIRCLE('',#290,12.7833569366602);
#134=CIRCLE('',#292,12.7413418290126);
#135=CIRCLE('',#294,8.97835891091441);
#136=CIRCLE('',#296,8.09523809523809);
#137=CIRCLE('',#298,8.09523809523809);
#138=CIRCLE('',#300,8.5);
#139=CIRCLE('',#302,8.5);
#140=CIRCLE('',#304,7.);
#141=EDGE_LOOP('',(#36));
#142=EDGE_LOOP('',(#37));
#143=EDGE_LOOP('',(#38));
#144=EDGE_LOOP('',(#39));
#145=EDGE_LOOP('',(#40));
#146=EDGE_LOOP('',(#41));
#147=EDGE_LOOP('',(#42));
#148=EDGE_LOOP('',(#43));
#149=EDGE_LOOP('',(#44));
#150=EDGE_LOOP('',(#45));
#151=EDGE_LOOP('',(#46));
#152=EDGE_LOOP('',(#47));
#153=EDGE_LOOP('',(#48));
#154=EDGE_LOOP('',(#49));
#155=EDGE_LOOP('',(#50));
#156=EDGE_LOOP('',(#51));
#157=EDGE_LOOP('',(#52));
#158=EDGE_LOOP('',(#53));
#159=EDGE_LOOP('',(#54));
#160=EDGE_LOOP('',(#55));
#161=EDGE_LOOP('',(#56));
#162=EDGE_LOOP('',(#57));
#163=EDGE_LOOP('',(#58));
#164=EDGE_LOOP('',(#59));
#165=EDGE_LOOP('',(#60));
#166=EDGE_LOOP('',(#61));
#167=EDGE_LOOP('',(#62));
#168=EDGE_LOOP('',(#63));
#169=EDGE_LOOP('',(#64));
#170=EDGE_LOOP('',(#65));
#171=EDGE_LOOP('',(#66));
#172=EDGE_LOOP('',(#67));
#173=EDGE_LOOP('',(#68));
#174=EDGE_LOOP('',(#69));
#175=EDGE_LOOP('',(#70));
#176=EDGE_LOOP('',(#71));
#177=EDGE_LOOP('',(#72));
#178=EDGE_LOOP('',(#73));
#179=EDGE_LOOP('',(#74));
#180=EDGE_LOOP('',(#75));
#181=EDGE_LOOP('',(#76));
#182=EDGE_LOOP('',(#77));
#183=FACE_BOUND('',#141,.T.);
#184=FACE_BOUND('',#142,.T.);
#185=FACE_BOUND('',#143,.T.);
#186=FACE_BOUND('',#144,.T.);
#187=FACE_BOUND('',#145,.T.);
#188=FACE_BOUND('',#146,.T.);
#189=FACE_BOUND('',#147,.T.);
#190=FACE_BOUND('',#148,.T.);
#191=FACE_BOUND('',#149,.T.);
#192=FACE_BOUND('',#150,.T.);
#193=FACE_BOUND('',#151,.T.);
#194=FACE_BOUND('',#152,.T.);
#195=FACE_BOUND('',#153,.T.);
#196=FACE_BOUND('',#154,.T.);
#197=FACE_BOUND('',#155,.T.);
#198=FACE_BOUND('',#156,.T.);
#199=FACE_BOUND('',#157,.T.);
#200=FACE_BOUND('',#158,.T.);
#201=FACE_BOUND('',#159,.T.);
#202=FACE_BOUND('',#160,.T.);
#203=FACE_BOUND('',#161,.T.);
#204=FACE_BOUND('',#162,.T.);
#205=FACE_BOUND('',#163,.T.);
#206=FACE_BOUND('',#164,.T.);
#207=FACE_BOUND('',#165,.T.);
#208=FACE_BOUND('',#166,.T.);
#209=FACE_BOUND('',#167,.T.);
#210=FACE_BOUND('',#168,.T.);
#211=FACE_BOUND('',#169,.T.);
#212=FACE_BOUND('',#170,.T.);
#213=FACE_BOUND('',#171,.T.);
#214=FACE_BOUND('',#172,.T.);
#215=FACE_BOUND('',#173,.T.);
#216=FACE_BOUND('',#174,.T.);
#217=FACE_BOUND('',#175,.T.);
#218=FACE_BOUND('',#176,.T.);
#219=FACE_BOUND('',#177,.T.);
#220=FACE_BOUND('',#178,.T.);
#221=FACE_BOUND('',#179,.T.);
#222=FACE_BOUND('',#180,.T.);
#223=FACE_BOUND('',#181,.T.);
#224=FACE_BOUND('',#182,.T.);
#225=CYLINDRICAL_SURFACE('',#264,3.);
#226=CYLINDRICAL_SURFACE('',#269,6.);
#227=CYLINDRICAL_SURFACE('',#279,7.);
#228=CYLINDRICAL_SURFACE('',#297,8.09523809523809);
#229=CYLINDRICAL_SURFACE('',#301,8.5);
#230=ADVANCED_FACE('',(#183,#184),#225,.F.);
#231=ADVANCED_FACE('',(#185,#186),#33,.T.);
#232=ADVANCED_FACE('',(#187,#188),#226,.F.);
#233=ADVANCED_FACE('',(#189,#190),#26,.F.);
#234=ADVANCED_FACE('',(#191,#192),#20,.F.);
#235=ADVANCED_FACE('',(#193,#194),#27,.F.);
#236=ADVANCED_FACE('',(#195,#196),#21,.T.);
#237=ADVANCED_FACE('',(#197,#198),#227,.F.);
#238=ADVANCED_FACE('',(#199,#200),#28,.F.);
#239=ADVANCED_FACE('',(#201,#202),#29,.T.);
#240=ADVANCED_FACE('',(#203,#204),#30,.T.);
#241=ADVANCED_FACE('',(#205,#206),#22,.F.);
#242=ADVANCED_FACE('',(#207,#208),#31,.T.);
#243=ADVANCED_FACE('',(#209,#210),#23,.T.);
#244=ADVANCED_FACE('',(#211,#212),#32,.T.);
#245=ADVANCED_FACE('',(#213,#214),#24,.F.);
#246=ADVANCED_FACE('',(#215,#216),#228,.T.);
#247=ADVANCED_FACE('',(#217,#218),#34,.T.);
#248=ADVANCED_FACE('',(#219,#220),#229,.T.);
#249=ADVANCED_FACE('',(#221,#222),#25,.T.);
#250=ADVANCED_FACE('',(#223,#224),#35,.T.);
#251=CLOSED_SHELL('',(#230,#231,#232,#233,#234,#235,#236,#237,#238,#239,
#240,#241,#242,#243,#244,#245,#246,#247,#248,#249,#250));
#252=STYLED_ITEM('',(#253),#260);
#253=PRESENTATION_STYLE_ASSIGNMENT((#254));
#254=SURFACE_STYLE_USAGE(.BOTH.,#255);
#255=SURFACE_SIDE_STYLE('',(#256));
#256=SURFACE_STYLE_FILL_AREA(#257);
#257=FILL_AREA_STYLE('',(#258));
#258=FILL_AREA_STYLE_COLOUR('',#259);
#259=COLOUR_RGB('',0.,0.569999992847443,0.860000014305115);
#260=MANIFOLD_SOLID_BREP('191058 ESV-30-BU---(0)',#251);
#261=SHAPE_DEFINITION_REPRESENTATION(#462,#262);
#262=SHAPE_REPRESENTATION('191058 ESV-30-BU---(0)',(#263),#457);
#263=AXIS2_PLACEMENT_3D('',#392,#306,#307);
#264=AXIS2_PLACEMENT_3D('',#393,#308,#309);
#265=AXIS2_PLACEMENT_3D('',#394,#310,#311);
#266=AXIS2_PLACEMENT_3D('',#396,#312,#313);
#267=AXIS2_PLACEMENT_3D('',#398,#314,#315);
#268=AXIS2_PLACEMENT_3D('',#399,#316,#317);
#269=AXIS2_PLACEMENT_3D('',#401,#318,#319);
#270=AXIS2_PLACEMENT_3D('',#402,#320,#321);
#271=AXIS2_PLACEMENT_3D('',#404,#322,#323);
#272=AXIS2_PLACEMENT_3D('',#405,#324,#325);
#273=AXIS2_PLACEMENT_3D('',#407,#326,#327);
#274=AXIS2_PLACEMENT_3D('',#408,#328,#329);
#275=AXIS2_PLACEMENT_3D('',#410,#330,#331);
#276=AXIS2_PLACEMENT_3D('',#411,#332,#333);
#277=AXIS2_PLACEMENT_3D('',#413,#334,#335);
#278=AXIS2_PLACEMENT_3D('',#414,#336,#337);
#279=AXIS2_PLACEMENT_3D('',#416,#338,#339);
#280=AXIS2_PLACEMENT_3D('',#417,#340,#341);
#281=AXIS2_PLACEMENT_3D('',#419,#342,#343);
#282=AXIS2_PLACEMENT_3D('',#420,#344,#345);
#283=AXIS2_PLACEMENT_3D('',#422,#346,#347);
#284=AXIS2_PLACEMENT_3D('',#423,#348,#349);
#285=AXIS2_PLACEMENT_3D('',#425,#350,#351);
#286=AXIS2_PLACEMENT_3D('',#426,#352,#353);
#287=AXIS2_PLACEMENT_3D('',#428,#354,#355);
#288=AXIS2_PLACEMENT_3D('',#429,#356,#357);
#289=AXIS2_PLACEMENT_3D('',#431,#358,#359);
#290=AXIS2_PLACEMENT_3D('',#432,#360,#361);
#291=AXIS2_PLACEMENT_3D('',#434,#362,#363);
#292=AXIS2_PLACEMENT_3D('',#435,#364,#365);
#293=AXIS2_PLACEMENT_3D('',#437,#366,#367);
#294=AXIS2_PLACEMENT_3D('',#438,#368,#369);
#295=AXIS2_PLACEMENT_3D('',#440,#370,#371);
#296=AXIS2_PLACEMENT_3D('',#441,#372,#373);
#297=AXIS2_PLACEMENT_3D('',#443,#374,#375);
#298=AXIS2_PLACEMENT_3D('',#444,#376,#377);
#299=AXIS2_PLACEMENT_3D('',#446,#378,#379);
#300=AXIS2_PLACEMENT_3D('',#447,#380,#381);
#301=AXIS2_PLACEMENT_3D('',#449,#382,#383);
#302=AXIS2_PLACEMENT_3D('',#450,#384,#385);
#303=AXIS2_PLACEMENT_3D('',#452,#386,#387);
#304=AXIS2_PLACEMENT_3D('',#453,#388,#389);
#305=AXIS2_PLACEMENT_3D('',#455,#390,#391);
#306=DIRECTION('',(0.,0.,1.));
#307=DIRECTION('',(1.,0.,0.));
#308=DIRECTION('',(0.,-1.,0.));
#309=DIRECTION('',(0.,0.,-1.));
#310=DIRECTION('',(0.,-1.,0.));
#311=DIRECTION('',(0.,0.,-1.));
#312=DIRECTION('',(0.,-1.,0.));
#313=DIRECTION('',(0.,0.,-1.));
#314=DIRECTION('',(0.,-1.,0.));
#315=DIRECTION('',(0.,0.,-1.));
#316=DIRECTION('',(0.,-1.,0.));
#317=DIRECTION('',(0.,0.,-1.));
#318=DIRECTION('',(0.,-1.,0.));
#319=DIRECTION('',(0.,0.,-1.));
#320=DIRECTION('',(0.,-1.,0.));
#321=DIRECTION('',(0.,0.,-1.));
#322=DIRECTION('',(0.,-1.,0.));
#323=DIRECTION('',(0.,0.,-1.));
#324=DIRECTION('',(0.,-1.,0.));
#325=DIRECTION('',(0.,0.,-1.));
#326=DIRECTION('',(0.,-1.,0.));
#327=DIRECTION('',(0.,0.,-1.));
#328=DIRECTION('',(0.,-1.,0.));
#329=DIRECTION('',(0.,0.,-1.));
#330=DIRECTION('',(0.,1.,0.));
#331=DIRECTION('',(0.,0.,1.));
#332=DIRECTION('',(0.,-1.,0.));
#333=DIRECTION('',(0.,0.,-1.));
#334=DIRECTION('',(0.,-1.,0.));
#335=DIRECTION('',(0.,0.,-1.));
#336=DIRECTION('',(0.,-1.,0.));
#337=DIRECTION('',(0.,0.,-1.));
#338=DIRECTION('',(0.,-1.,0.));
#339=DIRECTION('',(0.,0.,-1.));
#340=DIRECTION('',(0.,-1.,0.));
#341=DIRECTION('',(0.,0.,-1.));
#342=DIRECTION('',(0.,-1.,0.));
#343=DIRECTION('',(0.,0.,-1.));
#344=DIRECTION('',(0.,-1.,0.));
#345=DIRECTION('',(0.,0.,-1.));
#346=DIRECTION('',(0.,1.,0.));
#347=DIRECTION('',(0.,0.,1.));
#348=DIRECTION('',(0.,-1.,0.));
#349=DIRECTION('',(0.,0.,-1.));
#350=DIRECTION('',(0.,-1.,0.));
#351=DIRECTION('',(0.,0.,-1.));
#352=DIRECTION('',(0.,-1.,0.));
#353=DIRECTION('',(0.,0.,-1.));
#354=DIRECTION('',(0.,-1.,0.));
#355=DIRECTION('',(0.,0.,-1.));
#356=DIRECTION('',(0.,-1.,0.));
#357=DIRECTION('',(0.,0.,-1.));
#358=DIRECTION('',(0.,1.,0.));
#359=DIRECTION('',(0.,0.,1.));
#360=DIRECTION('',(0.,-1.,0.));
#361=DIRECTION('',(0.,0.,-1.));
#362=DIRECTION('',(0.,-1.,0.));
#363=DIRECTION('',(0.,0.,-1.));
#364=DIRECTION('',(0.,-1.,0.));
#365=DIRECTION('',(0.,0.,-1.));
#366=DIRECTION('',(0.,-1.,0.));
#367=DIRECTION('',(0.,0.,-1.));
#368=DIRECTION('',(0.,-1.,0.));
#369=DIRECTION('',(0.,0.,-1.));
#370=DIRECTION('',(0.,-1.,0.));
#371=DIRECTION('',(0.,0.,-1.));
#372=DIRECTION('',(0.,-1.,0.));
#373=DIRECTION('',(0.,0.,-1.));
#374=DIRECTION('',(0.,-1.,0.));
#375=DIRECTION('',(0.,0.,-1.));
#376=DIRECTION('',(0.,-1.,0.));
#377=DIRECTION('',(0.,0.,-1.));
#378=DIRECTION('',(0.,-1.,0.));
#379=DIRECTION('',(0.,0.,-1.));
#380=DIRECTION('',(0.,-1.,0.));
#381=DIRECTION('',(0.,0.,-1.));
#382=DIRECTION('',(0.,-1.,0.));
#383=DIRECTION('',(0.,0.,-1.));
#384=DIRECTION('',(0.,-1.,0.));
#385=DIRECTION('',(0.,0.,-1.));
#386=DIRECTION('',(0.,-1.,0.));
#387=DIRECTION('',(0.,0.,-1.));
#388=DIRECTION('',(0.,-1.,0.));
#389=DIRECTION('',(0.,0.,-1.));
#390=DIRECTION('',(0.,1.,0.));
#391=DIRECTION('',(0.,0.,1.));
#392=CARTESIAN_POINT('',(0.,0.,0.));
#393=CARTESIAN_POINT('',(0.,0.,0.));
#394=CARTESIAN_POINT('',(0.,18.,0.));
#395=CARTESIAN_POINT('',(0.,18.,-3.));
#396=CARTESIAN_POINT('',(0.,23.,0.));
#397=CARTESIAN_POINT('',(0.,23.,-3.));
#398=CARTESIAN_POINT('',(3.,18.,0.));
#399=CARTESIAN_POINT('',(0.,18.,0.));
#400=CARTESIAN_POINT('',(0.,18.,-6.));
#401=CARTESIAN_POINT('',(0.,0.,0.));
#402=CARTESIAN_POINT('',(0.,11.5,0.));
#403=CARTESIAN_POINT('',(0.,11.5,-6.));
#404=CARTESIAN_POINT('',(0.,11.5,0.));
#405=CARTESIAN_POINT('',(0.,9.39093046171501,0.));
#406=CARTESIAN_POINT('',(0.,9.39093046171501,-10.6724002078929));
#407=CARTESIAN_POINT('',(0.,8.93520687551417,0.));
#408=CARTESIAN_POINT('',(0.,8.50758362363855,0.));
#409=CARTESIAN_POINT('',(0.,8.50758362363855,-10.725802343907));
#410=CARTESIAN_POINT('',(0.,8.50758362363855,0.));
#411=CARTESIAN_POINT('',(0.,6.39596258478877,0.));
#412=CARTESIAN_POINT('',(0.,6.39596258478877,-7.24088930077028));
#413=CARTESIAN_POINT('',(0.,5.96833933291315,0.));
#414=CARTESIAN_POINT('',(0.,5.96833933291315,0.));
#415=CARTESIAN_POINT('',(0.,5.96833933291315,-7.));
#416=CARTESIAN_POINT('',(0.,0.,0.));
#417=CARTESIAN_POINT('',(0.,3.75,0.));
#418=CARTESIAN_POINT('',(0.,3.75,-7.));
#419=CARTESIAN_POINT('',(0.,3.75,0.));
#420=CARTESIAN_POINT('',(0.,0.155355455974107,0.));
#421=CARTESIAN_POINT('',(0.,0.155355455974107,-14.7108088902206));
#422=CARTESIAN_POINT('',(0.,0.155355455974107,0.));
#423=CARTESIAN_POINT('',(0.,0.5,0.));
#424=CARTESIAN_POINT('',(0.,0.5,-15.));
#425=CARTESIAN_POINT('',(0.,0.5,0.));
#426=CARTESIAN_POINT('',(0.,4.81054522576715,0.));
#427=CARTESIAN_POINT('',(0.,4.81054522576715,-7.79351572162768));
#428=CARTESIAN_POINT('',(0.,5.23964185964825,0.));
#429=CARTESIAN_POINT('',(0.,5.67400770346897,0.));
#430=CARTESIAN_POINT('',(0.,5.67400770346897,-7.80253757613809));
#431=CARTESIAN_POINT('',(0.,5.67400770346897,0.));
#432=CARTESIAN_POINT('',(0.,8.51368215596178,0.));
#433=CARTESIAN_POINT('',(0.,8.51368215596178,-12.7833569366602));
#434=CARTESIAN_POINT('',(0.,8.9480479997825,0.));
#435=CARTESIAN_POINT('',(0.,9.40380866698845,0.));
#436=CARTESIAN_POINT('',(0.,9.40380866698845,-12.7413418290126));
#437=CARTESIAN_POINT('',(0.,9.40380866698845,0.));
#438=CARTESIAN_POINT('',(0.,11.1015607257398,0.));
#439=CARTESIAN_POINT('',(0.,11.1015607257398,-8.97835891091441));
#440=CARTESIAN_POINT('',(0.,12.4688427273576,0.));
#441=CARTESIAN_POINT('',(0.,12.4688427273577,0.));
#442=CARTESIAN_POINT('',(0.,12.4688427273577,-8.09523809523809));
#443=CARTESIAN_POINT('',(0.,0.,0.));
#444=CARTESIAN_POINT('',(0.,14.8,0.));
#445=CARTESIAN_POINT('',(0.,14.8,-8.09523809523809));
#446=CARTESIAN_POINT('',(8.09523809523809,14.8,0.));
#447=CARTESIAN_POINT('',(0.,14.8,0.));
#448=CARTESIAN_POINT('',(0.,14.8,-8.5));
#449=CARTESIAN_POINT('',(0.,0.,0.));
#450=CARTESIAN_POINT('',(0.,21.5,0.));
#451=CARTESIAN_POINT('',(0.,21.5,-8.5));
#452=CARTESIAN_POINT('',(0.,21.5,0.));
#453=CARTESIAN_POINT('',(0.,23.,0.));
#454=CARTESIAN_POINT('',(0.,23.,-7.));
#455=CARTESIAN_POINT('',(7.,23.,0.));
#456=MECHANICAL_DESIGN_GEOMETRIC_PRESENTATION_REPRESENTATION('',(#252),
#457);
#457=(
GEOMETRIC_REPRESENTATION_CONTEXT(3)
GLOBAL_UNCERTAINTY_ASSIGNED_CONTEXT((#458))
GLOBAL_UNIT_ASSIGNED_CONTEXT((#461,#460,#459))
REPRESENTATION_CONTEXT('191058 ESV-30-BU---(0)',
'TOP_LEVEL_ASSEMBLY_PART')
);
#458=UNCERTAINTY_MEASURE_WITH_UNIT(LENGTH_MEASURE(0.005),#461,
'DISTANCE_ACCURACY_VALUE','Maximum Tolerance applied to model');
#459=(
NAMED_UNIT(*)
SI_UNIT($,.STERADIAN.)
SOLID_ANGLE_UNIT()
);
#460=(
NAMED_UNIT(*)
PLANE_ANGLE_UNIT()
SI_UNIT($,.RADIAN.)
);
#461=(
LENGTH_UNIT()
NAMED_UNIT(*)
SI_UNIT(.MILLI.,.METRE.)
);
#462=PRODUCT_DEFINITION_SHAPE('','',#463);
#463=PRODUCT_DEFINITION('','',#465,#464);
#464=PRODUCT_DEFINITION_CONTEXT('',#471,'design');
#465=PRODUCT_DEFINITION_FORMATION_WITH_SPECIFIED_SOURCE('','',#467,
 .NOT_KNOWN.);
#466=PRODUCT_RELATED_PRODUCT_CATEGORY('','',(#467));
#467=PRODUCT('191058 ESV-30-BU---(0)','191058 ESV-30-BU---(0)',
'191058 ESV-30-BU---(0)',(#469));
#468=PRODUCT_CATEGORY('','');
#469=PRODUCT_CONTEXT('',#471,'mechanical');
#470=APPLICATION_PROTOCOL_DEFINITION('international standard',
'automotive_design',2010,#471);
#471=APPLICATION_CONTEXT(
'core data for automotive mechanical design processes');
ENDSEC;
END-ISO-10303-21;
