ISO-10303-21;
HEADER;
/* Generated by software containing ST-Developer
 * from STEP Tools, Inc. (www.steptools.com) 
 */
/* OPTION: using custom renumber hook */

FILE_DESCRIPTION(
/* description */ ('STEP AP214'),
/* implementation_level */ '2;1');

FILE_NAME(
/* name */ '177570_MKRV-12-PG-11',
/* time_stamp */ '2024-09-06T17:18:37+02:00',
/* author */ ('License CC BY-ND 4.0'),
/* organization */ ('CADENAS'),
/* preprocessor_version */ 'ST-DEVELOPER v19.3',
/* originating_system */ 'PARTsolutions',
/* authorisation */ '  ');

FILE_SCHEMA (('AUTOMOTIVE_DESIGN {1 0 10303 214 3 1 1}'));
ENDSEC;

DATA;
#10=PROPERTY_DEFINITION_REPRESENTATION(#14,#12);
#11=PROPERTY_DEFINITION_REPRESENTATION(#15,#13);
#12=REPRESENTATION('',(#16),#765);
#13=REPRESENTATION('',(#17),#765);
#14=PROPERTY_DEFINITION('pmi validation property','',#770);
#15=PROPERTY_DEFINITION('pmi validation property','',#770);
#16=VALUE_REPRESENTATION_ITEM('number of annotations',COUNT_MEASURE(0.));
#17=VALUE_REPRESENTATION_ITEM('number of views',COUNT_MEASURE(0.));
#18=SHAPE_REPRESENTATION_RELATIONSHIP('','',#450,#19);
#19=ADVANCED_BREP_SHAPE_REPRESENTATION('',(#448),#765);
#20=CONICAL_SURFACE('',#470,8.63,0.785398163397451);
#21=PLANE('',#467);
#22=PLANE('',#474);
#23=PLANE('',#475);
#24=PLANE('',#479);
#25=PLANE('',#483);
#26=PLANE('',#485);
#27=PLANE('',#486);
#28=PLANE('',#487);
#29=PLANE('',#488);
#30=PLANE('',#489);
#31=PLANE('',#490);
#32=PLANE('',#491);
#33=PLANE('',#492);
#34=PLANE('',#493);
#35=PLANE('',#494);
#36=PLANE('',#495);
#37=PLANE('',#496);
#38=PLANE('',#497);
#39=PLANE('',#498);
#40=PLANE('',#499);
#41=PLANE('',#500);
#42=PLANE('',#501);
#43=PLANE('',#502);
#44=PLANE('',#505);
#45=LINE('',#650,#69);
#46=LINE('',#655,#70);
#47=LINE('',#663,#71);
#48=LINE('',#667,#72);
#49=LINE('',#671,#73);
#50=LINE('',#675,#74);
#51=LINE('',#679,#75);
#52=LINE('',#683,#76);
#53=LINE('',#687,#77);
#54=LINE('',#691,#78);
#55=LINE('',#695,#79);
#56=LINE('',#699,#80);
#57=LINE('',#728,#81);
#58=LINE('',#730,#82);
#59=LINE('',#733,#83);
#60=LINE('',#735,#84);
#61=LINE('',#738,#85);
#62=LINE('',#740,#86);
#63=LINE('',#743,#87);
#64=LINE('',#745,#88);
#65=LINE('',#748,#89);
#66=LINE('',#750,#90);
#67=LINE('',#753,#91);
#68=LINE('',#754,#92);
#69=VECTOR('',#514,1000.);
#70=VECTOR('',#517,1000.);
#71=VECTOR('',#524,1000.);
#72=VECTOR('',#527,1000.);
#73=VECTOR('',#530,1000.);
#74=VECTOR('',#533,1000.);
#75=VECTOR('',#536,1000.);
#76=VECTOR('',#539,1000.);
#77=VECTOR('',#542,1000.);
#78=VECTOR('',#545,1000.);
#79=VECTOR('',#548,1000.);
#80=VECTOR('',#551,1000.);
#81=VECTOR('',#590,1000.);
#82=VECTOR('',#593,1000.);
#83=VECTOR('',#598,1000.);
#84=VECTOR('',#601,1000.);
#85=VECTOR('',#606,1000.);
#86=VECTOR('',#609,1000.);
#87=VECTOR('',#614,1000.);
#88=VECTOR('',#617,1000.);
#89=VECTOR('',#622,1000.);
#90=VECTOR('',#625,1000.);
#91=VECTOR('',#630,1000.);
#92=VECTOR('',#631,1000.);
#93=ORIENTED_EDGE('',*,*,#191,.F.);
#94=ORIENTED_EDGE('',*,*,#192,.T.);
#95=ORIENTED_EDGE('',*,*,#193,.T.);
#96=ORIENTED_EDGE('',*,*,#194,.T.);
#97=ORIENTED_EDGE('',*,*,#195,.F.);
#98=ORIENTED_EDGE('',*,*,#196,.T.);
#99=ORIENTED_EDGE('',*,*,#197,.F.);
#100=ORIENTED_EDGE('',*,*,#198,.T.);
#101=ORIENTED_EDGE('',*,*,#199,.T.);
#102=ORIENTED_EDGE('',*,*,#200,.T.);
#103=ORIENTED_EDGE('',*,*,#201,.F.);
#104=ORIENTED_EDGE('',*,*,#202,.T.);
#105=ORIENTED_EDGE('',*,*,#203,.T.);
#106=ORIENTED_EDGE('',*,*,#204,.T.);
#107=ORIENTED_EDGE('',*,*,#205,.F.);
#108=ORIENTED_EDGE('',*,*,#206,.T.);
#109=ORIENTED_EDGE('',*,*,#207,.T.);
#110=ORIENTED_EDGE('',*,*,#208,.T.);
#111=ORIENTED_EDGE('',*,*,#209,.F.);
#112=ORIENTED_EDGE('',*,*,#210,.T.);
#113=ORIENTED_EDGE('',*,*,#211,.T.);
#114=ORIENTED_EDGE('',*,*,#212,.T.);
#115=ORIENTED_EDGE('',*,*,#213,.F.);
#116=ORIENTED_EDGE('',*,*,#214,.T.);
#117=ORIENTED_EDGE('',*,*,#215,.T.);
#118=ORIENTED_EDGE('',*,*,#216,.T.);
#119=ORIENTED_EDGE('',*,*,#217,.F.);
#120=ORIENTED_EDGE('',*,*,#218,.T.);
#121=ORIENTED_EDGE('',*,*,#219,.F.);
#122=ORIENTED_EDGE('',*,*,#217,.T.);
#123=ORIENTED_EDGE('',*,*,#220,.F.);
#124=ORIENTED_EDGE('',*,*,#219,.T.);
#125=ORIENTED_EDGE('',*,*,#196,.F.);
#126=ORIENTED_EDGE('',*,*,#220,.T.);
#127=ORIENTED_EDGE('',*,*,#221,.F.);
#128=ORIENTED_EDGE('',*,*,#191,.T.);
#129=ORIENTED_EDGE('',*,*,#222,.F.);
#130=ORIENTED_EDGE('',*,*,#221,.T.);
#131=ORIENTED_EDGE('',*,*,#223,.F.);
#132=ORIENTED_EDGE('',*,*,#222,.T.);
#133=ORIENTED_EDGE('',*,*,#224,.F.);
#134=ORIENTED_EDGE('',*,*,#223,.T.);
#135=ORIENTED_EDGE('',*,*,#225,.F.);
#136=ORIENTED_EDGE('',*,*,#224,.T.);
#137=ORIENTED_EDGE('',*,*,#205,.T.);
#138=ORIENTED_EDGE('',*,*,#226,.T.);
#139=ORIENTED_EDGE('',*,*,#227,.F.);
#140=ORIENTED_EDGE('',*,*,#207,.F.);
#141=ORIENTED_EDGE('',*,*,#227,.T.);
#142=ORIENTED_EDGE('',*,*,#206,.F.);
#143=ORIENTED_EDGE('',*,*,#226,.F.);
#144=ORIENTED_EDGE('',*,*,#208,.F.);
#145=ORIENTED_EDGE('',*,*,#201,.T.);
#146=ORIENTED_EDGE('',*,*,#228,.T.);
#147=ORIENTED_EDGE('',*,*,#229,.F.);
#148=ORIENTED_EDGE('',*,*,#203,.F.);
#149=ORIENTED_EDGE('',*,*,#229,.T.);
#150=ORIENTED_EDGE('',*,*,#202,.F.);
#151=ORIENTED_EDGE('',*,*,#228,.F.);
#152=ORIENTED_EDGE('',*,*,#204,.F.);
#153=ORIENTED_EDGE('',*,*,#209,.T.);
#154=ORIENTED_EDGE('',*,*,#230,.T.);
#155=ORIENTED_EDGE('',*,*,#231,.F.);
#156=ORIENTED_EDGE('',*,*,#211,.F.);
#157=ORIENTED_EDGE('',*,*,#231,.T.);
#158=ORIENTED_EDGE('',*,*,#210,.F.);
#159=ORIENTED_EDGE('',*,*,#230,.F.);
#160=ORIENTED_EDGE('',*,*,#212,.F.);
#161=ORIENTED_EDGE('',*,*,#197,.T.);
#162=ORIENTED_EDGE('',*,*,#232,.T.);
#163=ORIENTED_EDGE('',*,*,#233,.F.);
#164=ORIENTED_EDGE('',*,*,#199,.F.);
#165=ORIENTED_EDGE('',*,*,#233,.T.);
#166=ORIENTED_EDGE('',*,*,#198,.F.);
#167=ORIENTED_EDGE('',*,*,#232,.F.);
#168=ORIENTED_EDGE('',*,*,#200,.F.);
#169=ORIENTED_EDGE('',*,*,#234,.T.);
#170=ORIENTED_EDGE('',*,*,#195,.T.);
#171=ORIENTED_EDGE('',*,*,#235,.F.);
#172=ORIENTED_EDGE('',*,*,#193,.F.);
#173=ORIENTED_EDGE('',*,*,#235,.T.);
#174=ORIENTED_EDGE('',*,*,#192,.F.);
#175=ORIENTED_EDGE('',*,*,#234,.F.);
#176=ORIENTED_EDGE('',*,*,#194,.F.);
#177=ORIENTED_EDGE('',*,*,#236,.T.);
#178=ORIENTED_EDGE('',*,*,#214,.F.);
#179=ORIENTED_EDGE('',*,*,#237,.F.);
#180=ORIENTED_EDGE('',*,*,#216,.F.);
#181=ORIENTED_EDGE('',*,*,#213,.T.);
#182=ORIENTED_EDGE('',*,*,#237,.T.);
#183=ORIENTED_EDGE('',*,*,#236,.F.);
#184=ORIENTED_EDGE('',*,*,#215,.F.);
#185=ORIENTED_EDGE('',*,*,#238,.T.);
#186=ORIENTED_EDGE('',*,*,#218,.F.);
#187=ORIENTED_EDGE('',*,*,#239,.T.);
#188=ORIENTED_EDGE('',*,*,#238,.F.);
#189=ORIENTED_EDGE('',*,*,#225,.T.);
#190=ORIENTED_EDGE('',*,*,#239,.F.);
#191=EDGE_CURVE('',#240,#240,#277,.T.);
#192=EDGE_CURVE('',#241,#242,#45,.F.);
#193=EDGE_CURVE('',#242,#243,#278,.T.);
#194=EDGE_CURVE('',#243,#244,#46,.T.);
#195=EDGE_CURVE('',#241,#244,#279,.T.);
#196=EDGE_CURVE('',#245,#245,#280,.T.);
#197=EDGE_CURVE('',#246,#247,#281,.T.);
#198=EDGE_CURVE('',#246,#248,#47,.F.);
#199=EDGE_CURVE('',#248,#249,#282,.T.);
#200=EDGE_CURVE('',#249,#247,#48,.T.);
#201=EDGE_CURVE('',#250,#251,#283,.T.);
#202=EDGE_CURVE('',#250,#252,#49,.F.);
#203=EDGE_CURVE('',#252,#253,#284,.T.);
#204=EDGE_CURVE('',#253,#251,#50,.T.);
#205=EDGE_CURVE('',#254,#255,#285,.T.);
#206=EDGE_CURVE('',#254,#256,#51,.F.);
#207=EDGE_CURVE('',#256,#257,#286,.T.);
#208=EDGE_CURVE('',#257,#255,#52,.T.);
#209=EDGE_CURVE('',#258,#259,#287,.T.);
#210=EDGE_CURVE('',#258,#260,#53,.F.);
#211=EDGE_CURVE('',#260,#261,#288,.T.);
#212=EDGE_CURVE('',#261,#259,#54,.T.);
#213=EDGE_CURVE('',#262,#263,#289,.T.);
#214=EDGE_CURVE('',#262,#264,#55,.F.);
#215=EDGE_CURVE('',#264,#265,#290,.T.);
#216=EDGE_CURVE('',#265,#263,#56,.T.);
#217=EDGE_CURVE('',#266,#266,#291,.T.);
#218=EDGE_CURVE('',#267,#267,#292,.T.);
#219=EDGE_CURVE('',#268,#268,#293,.T.);
#220=EDGE_CURVE('',#269,#269,#294,.T.);
#221=EDGE_CURVE('',#270,#270,#295,.T.);
#222=EDGE_CURVE('',#271,#271,#296,.T.);
#223=EDGE_CURVE('',#272,#272,#297,.T.);
#224=EDGE_CURVE('',#273,#273,#298,.T.);
#225=EDGE_CURVE('',#274,#274,#299,.T.);
#226=EDGE_CURVE('',#255,#254,#57,.T.);
#227=EDGE_CURVE('',#257,#256,#58,.T.);
#228=EDGE_CURVE('',#251,#250,#59,.T.);
#229=EDGE_CURVE('',#253,#252,#60,.T.);
#230=EDGE_CURVE('',#259,#258,#61,.T.);
#231=EDGE_CURVE('',#261,#260,#62,.T.);
#232=EDGE_CURVE('',#247,#246,#63,.T.);
#233=EDGE_CURVE('',#249,#248,#64,.T.);
#234=EDGE_CURVE('',#244,#241,#65,.T.);
#235=EDGE_CURVE('',#243,#242,#66,.T.);
#236=EDGE_CURVE('',#265,#264,#67,.T.);
#237=EDGE_CURVE('',#263,#262,#68,.T.);
#238=EDGE_CURVE('',#275,#275,#300,.T.);
#239=EDGE_CURVE('',#276,#276,#301,.T.);
#240=VERTEX_POINT('',#649);
#241=VERTEX_POINT('',#651);
#242=VERTEX_POINT('',#652);
#243=VERTEX_POINT('',#654);
#244=VERTEX_POINT('',#656);
#245=VERTEX_POINT('',#659);
#246=VERTEX_POINT('',#661);
#247=VERTEX_POINT('',#662);
#248=VERTEX_POINT('',#664);
#249=VERTEX_POINT('',#666);
#250=VERTEX_POINT('',#669);
#251=VERTEX_POINT('',#670);
#252=VERTEX_POINT('',#672);
#253=VERTEX_POINT('',#674);
#254=VERTEX_POINT('',#677);
#255=VERTEX_POINT('',#678);
#256=VERTEX_POINT('',#680);
#257=VERTEX_POINT('',#682);
#258=VERTEX_POINT('',#685);
#259=VERTEX_POINT('',#686);
#260=VERTEX_POINT('',#688);
#261=VERTEX_POINT('',#690);
#262=VERTEX_POINT('',#693);
#263=VERTEX_POINT('',#694);
#264=VERTEX_POINT('',#696);
#265=VERTEX_POINT('',#698);
#266=VERTEX_POINT('',#702);
#267=VERTEX_POINT('',#704);
#268=VERTEX_POINT('',#707);
#269=VERTEX_POINT('',#710);
#270=VERTEX_POINT('',#714);
#271=VERTEX_POINT('',#717);
#272=VERTEX_POINT('',#720);
#273=VERTEX_POINT('',#723);
#274=VERTEX_POINT('',#726);
#275=VERTEX_POINT('',#759);
#276=VERTEX_POINT('',#762);
#277=CIRCLE('',#453,11.5);
#278=CIRCLE('',#454,11.5);
#279=CIRCLE('',#455,11.5);
#280=CIRCLE('',#456,11.5);
#281=CIRCLE('',#457,11.5);
#282=CIRCLE('',#458,11.5);
#283=CIRCLE('',#459,11.5);
#284=CIRCLE('',#460,11.5);
#285=CIRCLE('',#461,11.5);
#286=CIRCLE('',#462,11.5);
#287=CIRCLE('',#463,11.5);
#288=CIRCLE('',#464,11.5);
#289=CIRCLE('',#465,11.5);
#290=CIRCLE('',#466,11.5);
#291=CIRCLE('',#468,8.63);
#292=CIRCLE('',#469,6.25);
#293=CIRCLE('',#471,9.3);
#294=CIRCLE('',#473,9.3);
#295=CIRCLE('',#476,9.3);
#296=CIRCLE('',#478,9.3);
#297=CIRCLE('',#480,11.5);
#298=CIRCLE('',#482,11.5);
#299=CIRCLE('',#484,8.63);
#300=CIRCLE('',#504,6.25);
#301=CIRCLE('',#506,8.63);
#302=EDGE_LOOP('',(#93));
#303=EDGE_LOOP('',(#94,#95,#96,#97));
#304=EDGE_LOOP('',(#98));
#305=EDGE_LOOP('',(#99,#100,#101,#102));
#306=EDGE_LOOP('',(#103,#104,#105,#106));
#307=EDGE_LOOP('',(#107,#108,#109,#110));
#308=EDGE_LOOP('',(#111,#112,#113,#114));
#309=EDGE_LOOP('',(#115,#116,#117,#118));
#310=EDGE_LOOP('',(#119));
#311=EDGE_LOOP('',(#120));
#312=EDGE_LOOP('',(#121));
#313=EDGE_LOOP('',(#122));
#314=EDGE_LOOP('',(#123));
#315=EDGE_LOOP('',(#124));
#316=EDGE_LOOP('',(#125));
#317=EDGE_LOOP('',(#126));
#318=EDGE_LOOP('',(#127));
#319=EDGE_LOOP('',(#128));
#320=EDGE_LOOP('',(#129));
#321=EDGE_LOOP('',(#130));
#322=EDGE_LOOP('',(#131));
#323=EDGE_LOOP('',(#132));
#324=EDGE_LOOP('',(#133));
#325=EDGE_LOOP('',(#134));
#326=EDGE_LOOP('',(#135));
#327=EDGE_LOOP('',(#136));
#328=EDGE_LOOP('',(#137,#138));
#329=EDGE_LOOP('',(#139,#140));
#330=EDGE_LOOP('',(#141,#142,#143,#144));
#331=EDGE_LOOP('',(#145,#146));
#332=EDGE_LOOP('',(#147,#148));
#333=EDGE_LOOP('',(#149,#150,#151,#152));
#334=EDGE_LOOP('',(#153,#154));
#335=EDGE_LOOP('',(#155,#156));
#336=EDGE_LOOP('',(#157,#158,#159,#160));
#337=EDGE_LOOP('',(#161,#162));
#338=EDGE_LOOP('',(#163,#164));
#339=EDGE_LOOP('',(#165,#166,#167,#168));
#340=EDGE_LOOP('',(#169,#170));
#341=EDGE_LOOP('',(#171,#172));
#342=EDGE_LOOP('',(#173,#174,#175,#176));
#343=EDGE_LOOP('',(#177,#178,#179,#180));
#344=EDGE_LOOP('',(#181,#182));
#345=EDGE_LOOP('',(#183,#184));
#346=EDGE_LOOP('',(#185));
#347=EDGE_LOOP('',(#186));
#348=EDGE_LOOP('',(#187));
#349=EDGE_LOOP('',(#188));
#350=EDGE_LOOP('',(#189));
#351=EDGE_LOOP('',(#190));
#352=FACE_BOUND('',#302,.T.);
#353=FACE_BOUND('',#303,.T.);
#354=FACE_BOUND('',#304,.T.);
#355=FACE_BOUND('',#305,.T.);
#356=FACE_BOUND('',#306,.T.);
#357=FACE_BOUND('',#307,.T.);
#358=FACE_BOUND('',#308,.T.);
#359=FACE_BOUND('',#309,.T.);
#360=FACE_BOUND('',#310,.T.);
#361=FACE_BOUND('',#311,.T.);
#362=FACE_BOUND('',#312,.T.);
#363=FACE_BOUND('',#313,.T.);
#364=FACE_BOUND('',#314,.T.);
#365=FACE_BOUND('',#315,.T.);
#366=FACE_BOUND('',#316,.T.);
#367=FACE_BOUND('',#317,.T.);
#368=FACE_BOUND('',#318,.T.);
#369=FACE_BOUND('',#319,.T.);
#370=FACE_BOUND('',#320,.T.);
#371=FACE_BOUND('',#321,.T.);
#372=FACE_BOUND('',#322,.T.);
#373=FACE_BOUND('',#323,.T.);
#374=FACE_BOUND('',#324,.T.);
#375=FACE_BOUND('',#325,.T.);
#376=FACE_BOUND('',#326,.T.);
#377=FACE_BOUND('',#327,.T.);
#378=FACE_BOUND('',#328,.T.);
#379=FACE_BOUND('',#329,.T.);
#380=FACE_BOUND('',#330,.T.);
#381=FACE_BOUND('',#331,.T.);
#382=FACE_BOUND('',#332,.T.);
#383=FACE_BOUND('',#333,.T.);
#384=FACE_BOUND('',#334,.T.);
#385=FACE_BOUND('',#335,.T.);
#386=FACE_BOUND('',#336,.T.);
#387=FACE_BOUND('',#337,.T.);
#388=FACE_BOUND('',#338,.T.);
#389=FACE_BOUND('',#339,.T.);
#390=FACE_BOUND('',#340,.T.);
#391=FACE_BOUND('',#341,.T.);
#392=FACE_BOUND('',#342,.T.);
#393=FACE_BOUND('',#343,.T.);
#394=FACE_BOUND('',#344,.T.);
#395=FACE_BOUND('',#345,.T.);
#396=FACE_BOUND('',#346,.T.);
#397=FACE_BOUND('',#347,.T.);
#398=FACE_BOUND('',#348,.T.);
#399=FACE_BOUND('',#349,.T.);
#400=FACE_BOUND('',#350,.T.);
#401=FACE_BOUND('',#351,.T.);
#402=CYLINDRICAL_SURFACE('',#452,11.5);
#403=CYLINDRICAL_SURFACE('',#472,9.3);
#404=CYLINDRICAL_SURFACE('',#477,9.3);
#405=CYLINDRICAL_SURFACE('',#481,11.5);
#406=CYLINDRICAL_SURFACE('',#503,6.25);
#407=CYLINDRICAL_SURFACE('',#507,8.63);
#408=ADVANCED_FACE('',(#352,#353,#354,#355,#356,#357,#358,#359),#402,.T.);
#409=ADVANCED_FACE('',(#360,#361),#21,.F.);
#410=ADVANCED_FACE('',(#362,#363),#20,.T.);
#411=ADVANCED_FACE('',(#364,#365),#403,.T.);
#412=ADVANCED_FACE('',(#366,#367),#22,.F.);
#413=ADVANCED_FACE('',(#368,#369),#23,.F.);
#414=ADVANCED_FACE('',(#370,#371),#404,.T.);
#415=ADVANCED_FACE('',(#372,#373),#24,.F.);
#416=ADVANCED_FACE('',(#374,#375),#405,.T.);
#417=ADVANCED_FACE('',(#376,#377),#25,.F.);
#418=ADVANCED_FACE('',(#378),#26,.T.);
#419=ADVANCED_FACE('',(#379),#27,.F.);
#420=ADVANCED_FACE('',(#380),#28,.F.);
#421=ADVANCED_FACE('',(#381),#29,.T.);
#422=ADVANCED_FACE('',(#382),#30,.F.);
#423=ADVANCED_FACE('',(#383),#31,.F.);
#424=ADVANCED_FACE('',(#384),#32,.T.);
#425=ADVANCED_FACE('',(#385),#33,.F.);
#426=ADVANCED_FACE('',(#386),#34,.F.);
#427=ADVANCED_FACE('',(#387),#35,.T.);
#428=ADVANCED_FACE('',(#388),#36,.F.);
#429=ADVANCED_FACE('',(#389),#37,.F.);
#430=ADVANCED_FACE('',(#390),#38,.T.);
#431=ADVANCED_FACE('',(#391),#39,.F.);
#432=ADVANCED_FACE('',(#392),#40,.F.);
#433=ADVANCED_FACE('',(#393),#41,.F.);
#434=ADVANCED_FACE('',(#394),#42,.T.);
#435=ADVANCED_FACE('',(#395),#43,.F.);
#436=ADVANCED_FACE('',(#396,#397),#406,.F.);
#437=ADVANCED_FACE('',(#398,#399),#44,.T.);
#438=ADVANCED_FACE('',(#400,#401),#407,.F.);
#439=CLOSED_SHELL('',(#408,#409,#410,#411,#412,#413,#414,#415,#416,#417,
#418,#419,#420,#421,#422,#423,#424,#425,#426,#427,#428,#429,#430,#431,#432,
#433,#434,#435,#436,#437,#438));
#440=STYLED_ITEM('',(#441),#448);
#441=PRESENTATION_STYLE_ASSIGNMENT((#442));
#442=SURFACE_STYLE_USAGE(.BOTH.,#443);
#443=SURFACE_SIDE_STYLE('',(#444));
#444=SURFACE_STYLE_FILL_AREA(#445);
#445=FILL_AREA_STYLE('',(#446));
#446=FILL_AREA_STYLE_COLOUR('',#447);
#447=COLOUR_RGB('',0.119999997317791,0.119999997317791,0.119999997317791);
#448=MANIFOLD_SOLID_BREP('177570 MKRV-12-PG-11',#439);
#449=SHAPE_DEFINITION_REPRESENTATION(#770,#450);
#450=SHAPE_REPRESENTATION('177570 MKRV-12-PG-11',(#451),#765);
#451=AXIS2_PLACEMENT_3D('',#646,#508,#509);
#452=AXIS2_PLACEMENT_3D('',#647,#510,#511);
#453=AXIS2_PLACEMENT_3D('',#648,#512,#513);
#454=AXIS2_PLACEMENT_3D('',#653,#515,#516);
#455=AXIS2_PLACEMENT_3D('',#657,#518,#519);
#456=AXIS2_PLACEMENT_3D('',#658,#520,#521);
#457=AXIS2_PLACEMENT_3D('',#660,#522,#523);
#458=AXIS2_PLACEMENT_3D('',#665,#525,#526);
#459=AXIS2_PLACEMENT_3D('',#668,#528,#529);
#460=AXIS2_PLACEMENT_3D('',#673,#531,#532);
#461=AXIS2_PLACEMENT_3D('',#676,#534,#535);
#462=AXIS2_PLACEMENT_3D('',#681,#537,#538);
#463=AXIS2_PLACEMENT_3D('',#684,#540,#541);
#464=AXIS2_PLACEMENT_3D('',#689,#543,#544);
#465=AXIS2_PLACEMENT_3D('',#692,#546,#547);
#466=AXIS2_PLACEMENT_3D('',#697,#549,#550);
#467=AXIS2_PLACEMENT_3D('',#700,#552,#553);
#468=AXIS2_PLACEMENT_3D('',#701,#554,#555);
#469=AXIS2_PLACEMENT_3D('',#703,#556,#557);
#470=AXIS2_PLACEMENT_3D('',#705,#558,#559);
#471=AXIS2_PLACEMENT_3D('',#706,#560,#561);
#472=AXIS2_PLACEMENT_3D('',#708,#562,#563);
#473=AXIS2_PLACEMENT_3D('',#709,#564,#565);
#474=AXIS2_PLACEMENT_3D('',#711,#566,#567);
#475=AXIS2_PLACEMENT_3D('',#712,#568,#569);
#476=AXIS2_PLACEMENT_3D('',#713,#570,#571);
#477=AXIS2_PLACEMENT_3D('',#715,#572,#573);
#478=AXIS2_PLACEMENT_3D('',#716,#574,#575);
#479=AXIS2_PLACEMENT_3D('',#718,#576,#577);
#480=AXIS2_PLACEMENT_3D('',#719,#578,#579);
#481=AXIS2_PLACEMENT_3D('',#721,#580,#581);
#482=AXIS2_PLACEMENT_3D('',#722,#582,#583);
#483=AXIS2_PLACEMENT_3D('',#724,#584,#585);
#484=AXIS2_PLACEMENT_3D('',#725,#586,#587);
#485=AXIS2_PLACEMENT_3D('',#727,#588,#589);
#486=AXIS2_PLACEMENT_3D('',#729,#591,#592);
#487=AXIS2_PLACEMENT_3D('',#731,#594,#595);
#488=AXIS2_PLACEMENT_3D('',#732,#596,#597);
#489=AXIS2_PLACEMENT_3D('',#734,#599,#600);
#490=AXIS2_PLACEMENT_3D('',#736,#602,#603);
#491=AXIS2_PLACEMENT_3D('',#737,#604,#605);
#492=AXIS2_PLACEMENT_3D('',#739,#607,#608);
#493=AXIS2_PLACEMENT_3D('',#741,#610,#611);
#494=AXIS2_PLACEMENT_3D('',#742,#612,#613);
#495=AXIS2_PLACEMENT_3D('',#744,#615,#616);
#496=AXIS2_PLACEMENT_3D('',#746,#618,#619);
#497=AXIS2_PLACEMENT_3D('',#747,#620,#621);
#498=AXIS2_PLACEMENT_3D('',#749,#623,#624);
#499=AXIS2_PLACEMENT_3D('',#751,#626,#627);
#500=AXIS2_PLACEMENT_3D('',#752,#628,#629);
#501=AXIS2_PLACEMENT_3D('',#755,#632,#633);
#502=AXIS2_PLACEMENT_3D('',#756,#634,#635);
#503=AXIS2_PLACEMENT_3D('',#757,#636,#637);
#504=AXIS2_PLACEMENT_3D('',#758,#638,#639);
#505=AXIS2_PLACEMENT_3D('',#760,#640,#641);
#506=AXIS2_PLACEMENT_3D('',#761,#642,#643);
#507=AXIS2_PLACEMENT_3D('',#763,#644,#645);
#508=DIRECTION('',(0.,0.,1.));
#509=DIRECTION('',(1.,0.,0.));
#510=DIRECTION('',(0.,-1.,0.));
#511=DIRECTION('',(0.,0.,-1.));
#512=DIRECTION('',(0.,-1.,0.));
#513=DIRECTION('',(0.,0.,-1.));
#514=DIRECTION('',(0.,-1.,0.));
#515=DIRECTION('',(0.,1.,0.));
#516=DIRECTION('',(0.,0.,1.));
#517=DIRECTION('',(0.,-1.,0.));
#518=DIRECTION('',(0.,1.,0.));
#519=DIRECTION('',(0.,0.,1.));
#520=DIRECTION('',(0.,-1.,0.));
#521=DIRECTION('',(0.,0.,-1.));
#522=DIRECTION('',(0.,1.,0.));
#523=DIRECTION('',(0.,0.,1.));
#524=DIRECTION('',(0.,-1.,0.));
#525=DIRECTION('',(0.,1.,0.));
#526=DIRECTION('',(0.,0.,1.));
#527=DIRECTION('',(0.,-1.,0.));
#528=DIRECTION('',(0.,1.,0.));
#529=DIRECTION('',(0.,0.,1.));
#530=DIRECTION('',(0.,-1.,0.));
#531=DIRECTION('',(0.,1.,0.));
#532=DIRECTION('',(0.,0.,1.));
#533=DIRECTION('',(0.,-1.,0.));
#534=DIRECTION('',(0.,1.,0.));
#535=DIRECTION('',(0.,0.,1.));
#536=DIRECTION('',(0.,-1.,0.));
#537=DIRECTION('',(0.,1.,0.));
#538=DIRECTION('',(0.,0.,1.));
#539=DIRECTION('',(0.,-1.,0.));
#540=DIRECTION('',(0.,1.,0.));
#541=DIRECTION('',(0.,0.,1.));
#542=DIRECTION('',(0.,-1.,0.));
#543=DIRECTION('',(0.,1.,0.));
#544=DIRECTION('',(0.,0.,1.));
#545=DIRECTION('',(0.,-1.,0.));
#546=DIRECTION('',(0.,1.,0.));
#547=DIRECTION('',(0.,0.,1.));
#548=DIRECTION('',(0.,-1.,0.));
#549=DIRECTION('',(0.,1.,0.));
#550=DIRECTION('',(0.,0.,1.));
#551=DIRECTION('',(0.,-1.,0.));
#552=DIRECTION('',(0.,-1.,0.));
#553=DIRECTION('',(0.,0.,-1.));
#554=DIRECTION('',(0.,-1.,0.));
#555=DIRECTION('',(0.,0.,-1.));
#556=DIRECTION('',(0.,-1.,0.));
#557=DIRECTION('',(0.,0.,-1.));
#558=DIRECTION('',(0.,-1.,0.));
#559=DIRECTION('',(0.,0.,-1.));
#560=DIRECTION('',(0.,-1.,0.));
#561=DIRECTION('',(0.,0.,-1.));
#562=DIRECTION('',(0.,-1.,0.));
#563=DIRECTION('',(0.,0.,-1.));
#564=DIRECTION('',(0.,-1.,0.));
#565=DIRECTION('',(0.,0.,-1.));
#566=DIRECTION('',(0.,-1.,0.));
#567=DIRECTION('',(0.,0.,-1.));
#568=DIRECTION('',(0.,1.,0.));
#569=DIRECTION('',(0.,0.,1.));
#570=DIRECTION('',(0.,-1.,0.));
#571=DIRECTION('',(0.,0.,-1.));
#572=DIRECTION('',(0.,-1.,0.));
#573=DIRECTION('',(0.,0.,-1.));
#574=DIRECTION('',(0.,-1.,0.));
#575=DIRECTION('',(0.,0.,-1.));
#576=DIRECTION('',(0.,-1.,0.));
#577=DIRECTION('',(0.,0.,-1.));
#578=DIRECTION('',(0.,-1.,0.));
#579=DIRECTION('',(0.,0.,-1.));
#580=DIRECTION('',(0.,-1.,0.));
#581=DIRECTION('',(0.,0.,-1.));
#582=DIRECTION('',(0.,-1.,0.));
#583=DIRECTION('',(0.,0.,-1.));
#584=DIRECTION('',(0.,1.,0.));
#585=DIRECTION('',(0.,0.,1.));
#586=DIRECTION('',(0.,-1.,0.));
#587=DIRECTION('',(0.,0.,-1.));
#588=DIRECTION('',(0.,1.,0.));
#589=DIRECTION('',(0.,0.,1.));
#590=DIRECTION('',(-0.866025403784439,0.,-0.5));
#591=DIRECTION('',(0.,1.,0.));
#592=DIRECTION('',(0.,0.,1.));
#593=DIRECTION('',(-0.866025403784439,0.,-0.5));
#594=DIRECTION('',(0.5,0.,-0.866025403784439));
#595=DIRECTION('',(-0.866025403784439,0.,-0.5));
#596=DIRECTION('',(0.,1.,0.));
#597=DIRECTION('',(0.,0.,1.));
#598=DIRECTION('',(0.,0.,-1.));
#599=DIRECTION('',(0.,1.,0.));
#600=DIRECTION('',(0.,0.,1.));
#601=DIRECTION('',(0.,0.,-1.));
#602=DIRECTION('',(1.,0.,0.));
#603=DIRECTION('',(0.,0.,-1.));
#604=DIRECTION('',(0.,1.,0.));
#605=DIRECTION('',(0.,0.,1.));
#606=DIRECTION('',(0.866025403784439,0.,-0.5));
#607=DIRECTION('',(0.,1.,0.));
#608=DIRECTION('',(0.,0.,1.));
#609=DIRECTION('',(0.866025403784439,0.,-0.5));
#610=DIRECTION('',(0.5,0.,0.866025403784439));
#611=DIRECTION('',(0.866025403784439,0.,-0.5));
#612=DIRECTION('',(0.,1.,0.));
#613=DIRECTION('',(0.,0.,1.));
#614=DIRECTION('',(0.866025403784439,0.,0.5));
#615=DIRECTION('',(0.,1.,0.));
#616=DIRECTION('',(0.,0.,1.));
#617=DIRECTION('',(0.866025403784439,0.,0.5));
#618=DIRECTION('',(-0.5,0.,0.866025403784439));
#619=DIRECTION('',(0.866025403784439,0.,0.5));
#620=DIRECTION('',(0.,1.,0.));
#621=DIRECTION('',(0.,0.,1.));
#622=DIRECTION('',(0.,0.,1.));
#623=DIRECTION('',(0.,1.,0.));
#624=DIRECTION('',(0.,0.,1.));
#625=DIRECTION('',(0.,0.,1.));
#626=DIRECTION('',(-1.,0.,0.));
#627=DIRECTION('',(0.,0.,1.));
#628=DIRECTION('',(-0.5,0.,-0.866025403784439));
#629=DIRECTION('',(-0.866025403784439,0.,0.5));
#630=DIRECTION('',(-0.866025403784439,0.,0.5));
#631=DIRECTION('',(-0.866025403784439,0.,0.5));
#632=DIRECTION('',(0.,1.,0.));
#633=DIRECTION('',(0.,0.,1.));
#634=DIRECTION('',(0.,1.,0.));
#635=DIRECTION('',(0.,0.,1.));
#636=DIRECTION('',(0.,-1.,0.));
#637=DIRECTION('',(0.,0.,-1.));
#638=DIRECTION('',(0.,-1.,0.));
#639=DIRECTION('',(0.,0.,-1.));
#640=DIRECTION('',(0.,-1.,0.));
#641=DIRECTION('',(0.,0.,-1.));
#642=DIRECTION('',(0.,-1.,0.));
#643=DIRECTION('',(0.,0.,-1.));
#644=DIRECTION('',(0.,-1.,0.));
#645=DIRECTION('',(0.,0.,-1.));
#646=CARTESIAN_POINT('',(0.,0.,0.));
#647=CARTESIAN_POINT('',(0.,0.,0.));
#648=CARTESIAN_POINT('',(0.,3.7,0.));
#649=CARTESIAN_POINT('',(0.,3.7,-11.5));
#650=CARTESIAN_POINT('',(10.5,0.,4.69041575982343));
#651=CARTESIAN_POINT('',(10.5,15.,4.69041575982343));
#652=CARTESIAN_POINT('',(10.5,25.,4.69041575982343));
#653=CARTESIAN_POINT('',(0.,25.,0.));
#654=CARTESIAN_POINT('',(10.5,25.,-4.69041575982343));
#655=CARTESIAN_POINT('',(10.5,0.,-4.69041575982343));
#656=CARTESIAN_POINT('',(10.5,15.,-4.69041575982343));
#657=CARTESIAN_POINT('',(0.,15.,0.));
#658=CARTESIAN_POINT('',(0.,27.,0.));
#659=CARTESIAN_POINT('',(0.,27.,-11.5));
#660=CARTESIAN_POINT('',(0.,15.,0.));
#661=CARTESIAN_POINT('',(9.31201920231798,15.,-6.7480588598249));
#662=CARTESIAN_POINT('',(1.18798079768202,15.,-11.4384746196483));
#663=CARTESIAN_POINT('',(9.31201920231798,0.,-6.74805885982489));
#664=CARTESIAN_POINT('',(9.31201920231798,25.,-6.7480588598249));
#665=CARTESIAN_POINT('',(0.,25.,0.));
#666=CARTESIAN_POINT('',(1.18798079768202,25.,-11.4384746196483));
#667=CARTESIAN_POINT('',(1.18798079768202,0.,-11.4384746196483));
#668=CARTESIAN_POINT('',(0.,15.,0.));
#669=CARTESIAN_POINT('',(-10.5,15.,-4.69041575982343));
#670=CARTESIAN_POINT('',(-10.5,15.,4.69041575982343));
#671=CARTESIAN_POINT('',(-10.5,0.,-4.69041575982343));
#672=CARTESIAN_POINT('',(-10.5,25.,-4.69041575982343));
#673=CARTESIAN_POINT('',(0.,25.,0.));
#674=CARTESIAN_POINT('',(-10.5,25.,4.69041575982343));
#675=CARTESIAN_POINT('',(-10.5,0.,4.69041575982343));
#676=CARTESIAN_POINT('',(0.,15.,0.));
#677=CARTESIAN_POINT('',(-9.31201920231798,15.,6.74805885982489));
#678=CARTESIAN_POINT('',(-1.18798079768202,15.,11.4384746196483));
#679=CARTESIAN_POINT('',(-9.31201920231798,0.,6.74805885982489));
#680=CARTESIAN_POINT('',(-9.31201920231798,25.,6.74805885982489));
#681=CARTESIAN_POINT('',(0.,25.,0.));
#682=CARTESIAN_POINT('',(-1.18798079768202,25.,11.4384746196483));
#683=CARTESIAN_POINT('',(-1.18798079768201,0.,11.4384746196483));
#684=CARTESIAN_POINT('',(0.,15.,0.));
#685=CARTESIAN_POINT('',(-1.18798079768202,15.,-11.4384746196483));
#686=CARTESIAN_POINT('',(-9.31201920231798,15.,-6.7480588598249));
#687=CARTESIAN_POINT('',(-1.18798079768202,0.,-11.4384746196483));
#688=CARTESIAN_POINT('',(-1.18798079768202,25.,-11.4384746196483));
#689=CARTESIAN_POINT('',(0.,25.,0.));
#690=CARTESIAN_POINT('',(-9.31201920231798,25.,-6.7480588598249));
#691=CARTESIAN_POINT('',(-9.31201920231798,0.,-6.7480588598249));
#692=CARTESIAN_POINT('',(0.,15.,0.));
#693=CARTESIAN_POINT('',(1.18798079768202,15.,11.4384746196483));
#694=CARTESIAN_POINT('',(9.31201920231798,15.,6.74805885982489));
#695=CARTESIAN_POINT('',(1.18798079768201,0.,11.4384746196483));
#696=CARTESIAN_POINT('',(1.18798079768202,25.,11.4384746196483));
#697=CARTESIAN_POINT('',(0.,25.,0.));
#698=CARTESIAN_POINT('',(9.31201920231798,25.,6.74805885982489));
#699=CARTESIAN_POINT('',(9.31201920231798,0.,6.74805885982489));
#700=CARTESIAN_POINT('',(0.,37.,0.));
#701=CARTESIAN_POINT('',(0.,37.,0.));
#702=CARTESIAN_POINT('',(0.,37.,-8.63));
#703=CARTESIAN_POINT('',(0.,37.,0.));
#704=CARTESIAN_POINT('',(0.,37.,-6.25));
#705=CARTESIAN_POINT('',(0.,37.,0.));
#706=CARTESIAN_POINT('',(0.,36.33,0.));
#707=CARTESIAN_POINT('',(0.,36.33,-9.3));
#708=CARTESIAN_POINT('',(0.,0.,0.));
#709=CARTESIAN_POINT('',(0.,27.,0.));
#710=CARTESIAN_POINT('',(0.,27.,-9.3));
#711=CARTESIAN_POINT('',(9.3,27.,0.));
#712=CARTESIAN_POINT('',(11.5,3.7,0.));
#713=CARTESIAN_POINT('',(0.,3.7,0.));
#714=CARTESIAN_POINT('',(0.,3.7,-9.3));
#715=CARTESIAN_POINT('',(0.,0.,0.));
#716=CARTESIAN_POINT('',(0.,2.96,0.));
#717=CARTESIAN_POINT('',(0.,2.96,-9.3));
#718=CARTESIAN_POINT('',(9.3,2.96,0.));
#719=CARTESIAN_POINT('',(0.,2.96,0.));
#720=CARTESIAN_POINT('',(0.,2.96,-11.5));
#721=CARTESIAN_POINT('',(0.,0.,0.));
#722=CARTESIAN_POINT('',(0.,0.,0.));
#723=CARTESIAN_POINT('',(0.,0.,-11.5));
#724=CARTESIAN_POINT('',(11.5,0.,0.));
#725=CARTESIAN_POINT('',(0.,0.,0.));
#726=CARTESIAN_POINT('',(0.,0.,-8.63));
#727=CARTESIAN_POINT('',(0.,15.,0.));
#728=CARTESIAN_POINT('',(0.,15.,12.1243556529821));
#729=CARTESIAN_POINT('',(0.,25.,0.));
#730=CARTESIAN_POINT('',(0.,25.,12.1243556529821));
#731=CARTESIAN_POINT('',(0.,15.,12.1243556529821));
#732=CARTESIAN_POINT('',(0.,15.,0.));
#733=CARTESIAN_POINT('',(-10.5,15.,6.06217782649107));
#734=CARTESIAN_POINT('',(0.,25.,0.));
#735=CARTESIAN_POINT('',(-10.5,25.,6.06217782649107));
#736=CARTESIAN_POINT('',(-10.5,15.,6.06217782649107));
#737=CARTESIAN_POINT('',(0.,15.,0.));
#738=CARTESIAN_POINT('',(-10.5,15.,-6.06217782649107));
#739=CARTESIAN_POINT('',(0.,25.,0.));
#740=CARTESIAN_POINT('',(-10.5,25.,-6.06217782649107));
#741=CARTESIAN_POINT('',(-10.5,15.,-6.06217782649107));
#742=CARTESIAN_POINT('',(0.,15.,0.));
#743=CARTESIAN_POINT('',(0.500000000000002,15.,-11.8356805183873));
#744=CARTESIAN_POINT('',(0.,25.,0.));
#745=CARTESIAN_POINT('',(0.500000000000002,25.,-11.8356805183873));
#746=CARTESIAN_POINT('',(0.500000000000002,15.,-11.8356805183873));
#747=CARTESIAN_POINT('',(0.,15.,0.));
#748=CARTESIAN_POINT('',(10.5,15.,-6.06217782649107));
#749=CARTESIAN_POINT('',(0.,25.,0.));
#750=CARTESIAN_POINT('',(10.5,25.,-6.06217782649107));
#751=CARTESIAN_POINT('',(10.5,15.,-6.06217782649107));
#752=CARTESIAN_POINT('',(10.5,15.,6.06217782649107));
#753=CARTESIAN_POINT('',(10.5,25.,6.06217782649107));
#754=CARTESIAN_POINT('',(10.5,15.,6.06217782649107));
#755=CARTESIAN_POINT('',(0.,15.,0.));
#756=CARTESIAN_POINT('',(0.,25.,0.));
#757=CARTESIAN_POINT('',(0.,0.,0.));
#758=CARTESIAN_POINT('',(0.,25.,0.));
#759=CARTESIAN_POINT('',(0.,25.,-6.25));
#760=CARTESIAN_POINT('',(6.25,25.,0.));
#761=CARTESIAN_POINT('',(0.,25.,0.));
#762=CARTESIAN_POINT('',(0.,25.,-8.63));
#763=CARTESIAN_POINT('',(0.,0.,0.));
#764=MECHANICAL_DESIGN_GEOMETRIC_PRESENTATION_REPRESENTATION('',(#440),
#765);
#765=(
GEOMETRIC_REPRESENTATION_CONTEXT(3)
GLOBAL_UNCERTAINTY_ASSIGNED_CONTEXT((#766))
GLOBAL_UNIT_ASSIGNED_CONTEXT((#769,#768,#767))
REPRESENTATION_CONTEXT('177570 MKRV-12-PG-11','TOP_LEVEL_ASSEMBLY_PART')
);
#766=UNCERTAINTY_MEASURE_WITH_UNIT(LENGTH_MEASURE(0.005),#769,
'DISTANCE_ACCURACY_VALUE','Maximum Tolerance applied to model');
#767=(
NAMED_UNIT(*)
SI_UNIT($,.STERADIAN.)
SOLID_ANGLE_UNIT()
);
#768=(
NAMED_UNIT(*)
PLANE_ANGLE_UNIT()
SI_UNIT($,.RADIAN.)
);
#769=(
LENGTH_UNIT()
NAMED_UNIT(*)
SI_UNIT(.MILLI.,.METRE.)
);
#770=PRODUCT_DEFINITION_SHAPE('','',#771);
#771=PRODUCT_DEFINITION('','',#773,#772);
#772=PRODUCT_DEFINITION_CONTEXT('',#779,'design');
#773=PRODUCT_DEFINITION_FORMATION_WITH_SPECIFIED_SOURCE('','',#775,
 .NOT_KNOWN.);
#774=PRODUCT_RELATED_PRODUCT_CATEGORY('','',(#775));
#775=PRODUCT('177570 MKRV-12-PG-11','177570 MKRV-12-PG-11',
'177570 MKRV-12-PG-11',(#777));
#776=PRODUCT_CATEGORY('','');
#777=PRODUCT_CONTEXT('',#779,'mechanical');
#778=APPLICATION_PROTOCOL_DEFINITION('international standard',
'automotive_design',2010,#779);
#779=APPLICATION_CONTEXT(
'core data for automotive mechanical design processes');
ENDSEC;
END-ISO-10303-21;
