ISO-10303-21;
HEADER;
/* Generated by software containing ST-Developer
 * from STEP Tools, Inc. (www.steptools.com) 
 */
/* OPTION: using custom renumber hook */

FILE_DESCRIPTION(
/* description */ ('STEP AP214'),
/* implementation_level */ '2;1');

FILE_NAME(
/* name */ '163201_HAPB-2',
/* time_stamp */ '2024-08-28T23:43:16+02:00',
/* author */ ('License CC BY-ND 4.0'),
/* organization */ ('CADENAS'),
/* preprocessor_version */ 'ST-DEVELOPER v19.3',
/* originating_system */ 'PARTsolutions',
/* authorisation */ '  ');

FILE_SCHEMA (('AUTOMOTIVE_DESIGN {1 0 10303 214 3 1 1}'));
ENDSEC;

DATA;
#10=PROPERTY_DEFINITION_REPRESENTATION(#14,#12);
#11=PROPERTY_DEFINITION_REPRESENTATION(#15,#13);
#12=REPRESENTATION('',(#16),#689);
#13=REPRESENTATION('',(#17),#689);
#14=PROPERTY_DEFINITION('pmi validation property','',#694);
#15=PROPERTY_DEFINITION('pmi validation property','',#694);
#16=VALUE_REPRESENTATION_ITEM('number of annotations',COUNT_MEASURE(0.));
#17=VALUE_REPRESENTATION_ITEM('number of views',COUNT_MEASURE(0.));
#18=SHAPE_REPRESENTATION_RELATIONSHIP('','',#421,#19);
#19=ADVANCED_BREP_SHAPE_REPRESENTATION('',(#419),#689);
#20=VERTEX_LOOP('',#227);
#21=VERTEX_LOOP('',#229);
#22=CONICAL_SURFACE('',#459,2.5,1.0471975511966);
#23=CONICAL_SURFACE('',#462,2.5,1.0471975511966);
#24=CYLINDRICAL_SURFACE('',#431,0.499992000000001);
#25=CYLINDRICAL_SURFACE('',#441,0.499991999999999);
#26=CYLINDRICAL_SURFACE('',#447,2.75);
#27=CYLINDRICAL_SURFACE('',#451,5.);
#28=CYLINDRICAL_SURFACE('',#452,2.75);
#29=CYLINDRICAL_SURFACE('',#456,5.);
#30=CYLINDRICAL_SURFACE('',#457,2.5);
#31=CYLINDRICAL_SURFACE('',#460,2.5);
#32=CIRCLE('',#425,2.5);
#33=CIRCLE('',#426,2.5);
#34=CIRCLE('',#427,2.75);
#35=CIRCLE('',#428,2.75);
#36=CIRCLE('',#432,0.499992000000001);
#37=CIRCLE('',#433,0.499992000000001);
#38=CIRCLE('',#437,5.);
#39=CIRCLE('',#438,5.);
#40=CIRCLE('',#442,0.499991999999999);
#41=CIRCLE('',#443,0.499991999999999);
#42=CIRCLE('',#448,2.75);
#43=CIRCLE('',#450,5.);
#44=CIRCLE('',#453,2.75);
#45=CIRCLE('',#455,5.);
#46=CIRCLE('',#458,2.5);
#47=CIRCLE('',#461,2.5);
#48=ORIENTED_EDGE('',*,*,#144,.T.);
#49=ORIENTED_EDGE('',*,*,#145,.F.);
#50=ORIENTED_EDGE('',*,*,#146,.F.);
#51=ORIENTED_EDGE('',*,*,#147,.T.);
#52=ORIENTED_EDGE('',*,*,#148,.T.);
#53=ORIENTED_EDGE('',*,*,#149,.T.);
#54=ORIENTED_EDGE('',*,*,#150,.T.);
#55=ORIENTED_EDGE('',*,*,#151,.T.);
#56=ORIENTED_EDGE('',*,*,#152,.T.);
#57=ORIENTED_EDGE('',*,*,#153,.F.);
#58=ORIENTED_EDGE('',*,*,#154,.F.);
#59=ORIENTED_EDGE('',*,*,#145,.T.);
#60=ORIENTED_EDGE('',*,*,#155,.T.);
#61=ORIENTED_EDGE('',*,*,#156,.F.);
#62=ORIENTED_EDGE('',*,*,#157,.F.);
#63=ORIENTED_EDGE('',*,*,#153,.T.);
#64=ORIENTED_EDGE('',*,*,#158,.T.);
#65=ORIENTED_EDGE('',*,*,#159,.F.);
#66=ORIENTED_EDGE('',*,*,#160,.F.);
#67=ORIENTED_EDGE('',*,*,#156,.T.);
#68=ORIENTED_EDGE('',*,*,#161,.F.);
#69=ORIENTED_EDGE('',*,*,#162,.F.);
#70=ORIENTED_EDGE('',*,*,#163,.T.);
#71=ORIENTED_EDGE('',*,*,#159,.T.);
#72=ORIENTED_EDGE('',*,*,#164,.T.);
#73=ORIENTED_EDGE('',*,*,#165,.F.);
#74=ORIENTED_EDGE('',*,*,#166,.F.);
#75=ORIENTED_EDGE('',*,*,#162,.T.);
#76=ORIENTED_EDGE('',*,*,#167,.T.);
#77=ORIENTED_EDGE('',*,*,#168,.F.);
#78=ORIENTED_EDGE('',*,*,#169,.F.);
#79=ORIENTED_EDGE('',*,*,#165,.T.);
#80=ORIENTED_EDGE('',*,*,#170,.F.);
#81=ORIENTED_EDGE('',*,*,#171,.F.);
#82=ORIENTED_EDGE('',*,*,#172,.T.);
#83=ORIENTED_EDGE('',*,*,#173,.F.);
#84=ORIENTED_EDGE('',*,*,#174,.F.);
#85=ORIENTED_EDGE('',*,*,#168,.T.);
#86=ORIENTED_EDGE('',*,*,#175,.T.);
#87=ORIENTED_EDGE('',*,*,#176,.F.);
#88=ORIENTED_EDGE('',*,*,#177,.F.);
#89=ORIENTED_EDGE('',*,*,#173,.T.);
#90=ORIENTED_EDGE('',*,*,#178,.T.);
#91=ORIENTED_EDGE('',*,*,#179,.F.);
#92=ORIENTED_EDGE('',*,*,#180,.F.);
#93=ORIENTED_EDGE('',*,*,#176,.T.);
#94=ORIENTED_EDGE('',*,*,#181,.F.);
#95=ORIENTED_EDGE('',*,*,#182,.F.);
#96=ORIENTED_EDGE('',*,*,#183,.T.);
#97=ORIENTED_EDGE('',*,*,#179,.T.);
#98=ORIENTED_EDGE('',*,*,#184,.T.);
#99=ORIENTED_EDGE('',*,*,#147,.F.);
#100=ORIENTED_EDGE('',*,*,#185,.F.);
#101=ORIENTED_EDGE('',*,*,#182,.T.);
#102=ORIENTED_EDGE('',*,*,#146,.T.);
#103=ORIENTED_EDGE('',*,*,#154,.T.);
#104=ORIENTED_EDGE('',*,*,#157,.T.);
#105=ORIENTED_EDGE('',*,*,#160,.T.);
#106=ORIENTED_EDGE('',*,*,#163,.F.);
#107=ORIENTED_EDGE('',*,*,#166,.T.);
#108=ORIENTED_EDGE('',*,*,#169,.T.);
#109=ORIENTED_EDGE('',*,*,#174,.T.);
#110=ORIENTED_EDGE('',*,*,#177,.T.);
#111=ORIENTED_EDGE('',*,*,#180,.T.);
#112=ORIENTED_EDGE('',*,*,#183,.F.);
#113=ORIENTED_EDGE('',*,*,#185,.T.);
#114=ORIENTED_EDGE('',*,*,#144,.F.);
#115=ORIENTED_EDGE('',*,*,#184,.F.);
#116=ORIENTED_EDGE('',*,*,#181,.T.);
#117=ORIENTED_EDGE('',*,*,#178,.F.);
#118=ORIENTED_EDGE('',*,*,#175,.F.);
#119=ORIENTED_EDGE('',*,*,#172,.F.);
#120=ORIENTED_EDGE('',*,*,#167,.F.);
#121=ORIENTED_EDGE('',*,*,#164,.F.);
#122=ORIENTED_EDGE('',*,*,#161,.T.);
#123=ORIENTED_EDGE('',*,*,#158,.F.);
#124=ORIENTED_EDGE('',*,*,#155,.F.);
#125=ORIENTED_EDGE('',*,*,#152,.F.);
#126=ORIENTED_EDGE('',*,*,#186,.T.);
#127=ORIENTED_EDGE('',*,*,#151,.F.);
#128=ORIENTED_EDGE('',*,*,#187,.T.);
#129=ORIENTED_EDGE('',*,*,#186,.F.);
#130=ORIENTED_EDGE('',*,*,#171,.T.);
#131=ORIENTED_EDGE('',*,*,#187,.F.);
#132=ORIENTED_EDGE('',*,*,#188,.T.);
#133=ORIENTED_EDGE('',*,*,#150,.F.);
#134=ORIENTED_EDGE('',*,*,#189,.T.);
#135=ORIENTED_EDGE('',*,*,#188,.F.);
#136=ORIENTED_EDGE('',*,*,#170,.T.);
#137=ORIENTED_EDGE('',*,*,#189,.F.);
#138=ORIENTED_EDGE('',*,*,#190,.T.);
#139=ORIENTED_EDGE('',*,*,#149,.F.);
#140=ORIENTED_EDGE('',*,*,#190,.F.);
#141=ORIENTED_EDGE('',*,*,#191,.T.);
#142=ORIENTED_EDGE('',*,*,#148,.F.);
#143=ORIENTED_EDGE('',*,*,#191,.F.);
#144=EDGE_CURVE('',#192,#193,#230,.T.);
#145=EDGE_CURVE('',#194,#193,#231,.T.);
#146=EDGE_CURVE('',#195,#194,#232,.T.);
#147=EDGE_CURVE('',#195,#192,#233,.T.);
#148=EDGE_CURVE('',#196,#196,#32,.T.);
#149=EDGE_CURVE('',#197,#197,#33,.T.);
#150=EDGE_CURVE('',#198,#198,#34,.T.);
#151=EDGE_CURVE('',#199,#199,#35,.T.);
#152=EDGE_CURVE('',#193,#200,#234,.T.);
#153=EDGE_CURVE('',#201,#200,#235,.T.);
#154=EDGE_CURVE('',#194,#201,#236,.T.);
#155=EDGE_CURVE('',#200,#202,#237,.T.);
#156=EDGE_CURVE('',#203,#202,#238,.T.);
#157=EDGE_CURVE('',#201,#203,#239,.T.);
#158=EDGE_CURVE('',#202,#204,#240,.T.);
#159=EDGE_CURVE('',#205,#204,#241,.T.);
#160=EDGE_CURVE('',#203,#205,#242,.T.);
#161=EDGE_CURVE('',#206,#204,#36,.T.);
#162=EDGE_CURVE('',#207,#206,#243,.T.);
#163=EDGE_CURVE('',#207,#205,#37,.T.);
#164=EDGE_CURVE('',#206,#208,#244,.T.);
#165=EDGE_CURVE('',#209,#208,#245,.T.);
#166=EDGE_CURVE('',#207,#209,#246,.T.);
#167=EDGE_CURVE('',#208,#210,#247,.T.);
#168=EDGE_CURVE('',#211,#210,#248,.T.);
#169=EDGE_CURVE('',#209,#211,#249,.T.);
#170=EDGE_CURVE('',#212,#212,#38,.T.);
#171=EDGE_CURVE('',#213,#213,#39,.T.);
#172=EDGE_CURVE('',#210,#214,#250,.T.);
#173=EDGE_CURVE('',#215,#214,#251,.T.);
#174=EDGE_CURVE('',#211,#215,#252,.T.);
#175=EDGE_CURVE('',#214,#216,#253,.T.);
#176=EDGE_CURVE('',#217,#216,#254,.T.);
#177=EDGE_CURVE('',#215,#217,#255,.T.);
#178=EDGE_CURVE('',#216,#218,#256,.T.);
#179=EDGE_CURVE('',#219,#218,#257,.T.);
#180=EDGE_CURVE('',#217,#219,#258,.T.);
#181=EDGE_CURVE('',#220,#218,#40,.T.);
#182=EDGE_CURVE('',#221,#220,#259,.T.);
#183=EDGE_CURVE('',#221,#219,#41,.T.);
#184=EDGE_CURVE('',#220,#192,#260,.T.);
#185=EDGE_CURVE('',#221,#195,#261,.T.);
#186=EDGE_CURVE('',#222,#222,#42,.T.);
#187=EDGE_CURVE('',#223,#223,#43,.T.);
#188=EDGE_CURVE('',#224,#224,#44,.T.);
#189=EDGE_CURVE('',#225,#225,#45,.T.);
#190=EDGE_CURVE('',#226,#226,#46,.T.);
#191=EDGE_CURVE('',#228,#228,#47,.T.);
#192=VERTEX_POINT('',#580);
#193=VERTEX_POINT('',#581);
#194=VERTEX_POINT('',#583);
#195=VERTEX_POINT('',#585);
#196=VERTEX_POINT('',#589);
#197=VERTEX_POINT('',#591);
#198=VERTEX_POINT('',#593);
#199=VERTEX_POINT('',#595);
#200=VERTEX_POINT('',#597);
#201=VERTEX_POINT('',#599);
#202=VERTEX_POINT('',#603);
#203=VERTEX_POINT('',#605);
#204=VERTEX_POINT('',#609);
#205=VERTEX_POINT('',#611);
#206=VERTEX_POINT('',#615);
#207=VERTEX_POINT('',#617);
#208=VERTEX_POINT('',#621);
#209=VERTEX_POINT('',#623);
#210=VERTEX_POINT('',#627);
#211=VERTEX_POINT('',#629);
#212=VERTEX_POINT('',#633);
#213=VERTEX_POINT('',#635);
#214=VERTEX_POINT('',#637);
#215=VERTEX_POINT('',#639);
#216=VERTEX_POINT('',#643);
#217=VERTEX_POINT('',#645);
#218=VERTEX_POINT('',#649);
#219=VERTEX_POINT('',#651);
#220=VERTEX_POINT('',#655);
#221=VERTEX_POINT('',#657);
#222=VERTEX_POINT('',#666);
#223=VERTEX_POINT('',#669);
#224=VERTEX_POINT('',#673);
#225=VERTEX_POINT('',#676);
#226=VERTEX_POINT('',#680);
#227=VERTEX_POINT('',#682);
#228=VERTEX_POINT('',#685);
#229=VERTEX_POINT('',#687);
#230=LINE('',#579,#262);
#231=LINE('',#582,#263);
#232=LINE('',#584,#264);
#233=LINE('',#586,#265);
#234=LINE('',#596,#266);
#235=LINE('',#598,#267);
#236=LINE('',#600,#268);
#237=LINE('',#602,#269);
#238=LINE('',#604,#270);
#239=LINE('',#606,#271);
#240=LINE('',#608,#272);
#241=LINE('',#610,#273);
#242=LINE('',#612,#274);
#243=LINE('',#616,#275);
#244=LINE('',#620,#276);
#245=LINE('',#622,#277);
#246=LINE('',#624,#278);
#247=LINE('',#626,#279);
#248=LINE('',#628,#280);
#249=LINE('',#630,#281);
#250=LINE('',#636,#282);
#251=LINE('',#638,#283);
#252=LINE('',#640,#284);
#253=LINE('',#642,#285);
#254=LINE('',#644,#286);
#255=LINE('',#646,#287);
#256=LINE('',#648,#288);
#257=LINE('',#650,#289);
#258=LINE('',#652,#290);
#259=LINE('',#656,#291);
#260=LINE('',#660,#292);
#261=LINE('',#661,#293);
#262=VECTOR('',#467,1000.);
#263=VECTOR('',#468,1000.);
#264=VECTOR('',#469,1000.);
#265=VECTOR('',#470,1000.);
#266=VECTOR('',#481,1000.);
#267=VECTOR('',#482,1000.);
#268=VECTOR('',#483,1000.);
#269=VECTOR('',#486,1000.);
#270=VECTOR('',#487,1000.);
#271=VECTOR('',#488,1000.);
#272=VECTOR('',#491,1000.);
#273=VECTOR('',#492,1000.);
#274=VECTOR('',#493,1000.);
#275=VECTOR('',#498,1000.);
#276=VECTOR('',#503,1000.);
#277=VECTOR('',#504,1000.);
#278=VECTOR('',#505,1000.);
#279=VECTOR('',#508,1000.);
#280=VECTOR('',#509,1000.);
#281=VECTOR('',#510,1000.);
#282=VECTOR('',#517,1000.);
#283=VECTOR('',#518,1000.);
#284=VECTOR('',#519,1000.);
#285=VECTOR('',#522,1000.);
#286=VECTOR('',#523,1000.);
#287=VECTOR('',#524,1000.);
#288=VECTOR('',#527,1000.);
#289=VECTOR('',#528,1000.);
#290=VECTOR('',#529,1000.);
#291=VECTOR('',#534,1000.);
#292=VECTOR('',#539,1000.);
#293=VECTOR('',#540,1000.);
#294=EDGE_LOOP('',(#48,#49,#50,#51));
#295=EDGE_LOOP('',(#52));
#296=EDGE_LOOP('',(#53));
#297=EDGE_LOOP('',(#54));
#298=EDGE_LOOP('',(#55));
#299=EDGE_LOOP('',(#56,#57,#58,#59));
#300=EDGE_LOOP('',(#60,#61,#62,#63));
#301=EDGE_LOOP('',(#64,#65,#66,#67));
#302=EDGE_LOOP('',(#68,#69,#70,#71));
#303=EDGE_LOOP('',(#72,#73,#74,#75));
#304=EDGE_LOOP('',(#76,#77,#78,#79));
#305=EDGE_LOOP('',(#80));
#306=EDGE_LOOP('',(#81));
#307=EDGE_LOOP('',(#82,#83,#84,#85));
#308=EDGE_LOOP('',(#86,#87,#88,#89));
#309=EDGE_LOOP('',(#90,#91,#92,#93));
#310=EDGE_LOOP('',(#94,#95,#96,#97));
#311=EDGE_LOOP('',(#98,#99,#100,#101));
#312=EDGE_LOOP('',(#102,#103,#104,#105,#106,#107,#108,#109,#110,#111,#112,
#113));
#313=EDGE_LOOP('',(#114,#115,#116,#117,#118,#119,#120,#121,#122,#123,#124,
#125));
#314=EDGE_LOOP('',(#126));
#315=EDGE_LOOP('',(#127));
#316=EDGE_LOOP('',(#128));
#317=EDGE_LOOP('',(#129));
#318=EDGE_LOOP('',(#130));
#319=EDGE_LOOP('',(#131));
#320=EDGE_LOOP('',(#132));
#321=EDGE_LOOP('',(#133));
#322=EDGE_LOOP('',(#134));
#323=EDGE_LOOP('',(#135));
#324=EDGE_LOOP('',(#136));
#325=EDGE_LOOP('',(#137));
#326=EDGE_LOOP('',(#138));
#327=EDGE_LOOP('',(#139));
#328=EDGE_LOOP('',(#140));
#329=EDGE_LOOP('',(#141));
#330=EDGE_LOOP('',(#142));
#331=EDGE_LOOP('',(#143));
#332=FACE_BOUND('',#294,.T.);
#333=FACE_BOUND('',#295,.T.);
#334=FACE_BOUND('',#296,.T.);
#335=FACE_BOUND('',#297,.T.);
#336=FACE_BOUND('',#298,.T.);
#337=FACE_BOUND('',#299,.T.);
#338=FACE_BOUND('',#300,.T.);
#339=FACE_BOUND('',#301,.T.);
#340=FACE_BOUND('',#302,.T.);
#341=FACE_BOUND('',#303,.T.);
#342=FACE_BOUND('',#304,.T.);
#343=FACE_BOUND('',#305,.T.);
#344=FACE_BOUND('',#306,.T.);
#345=FACE_BOUND('',#307,.T.);
#346=FACE_BOUND('',#308,.T.);
#347=FACE_BOUND('',#309,.T.);
#348=FACE_BOUND('',#310,.T.);
#349=FACE_BOUND('',#311,.T.);
#350=FACE_BOUND('',#312,.T.);
#351=FACE_BOUND('',#313,.T.);
#352=FACE_BOUND('',#314,.T.);
#353=FACE_BOUND('',#315,.T.);
#354=FACE_BOUND('',#316,.T.);
#355=FACE_BOUND('',#317,.T.);
#356=FACE_BOUND('',#318,.T.);
#357=FACE_BOUND('',#319,.T.);
#358=FACE_BOUND('',#320,.T.);
#359=FACE_BOUND('',#321,.T.);
#360=FACE_BOUND('',#322,.T.);
#361=FACE_BOUND('',#323,.T.);
#362=FACE_BOUND('',#324,.T.);
#363=FACE_BOUND('',#325,.T.);
#364=FACE_BOUND('',#326,.T.);
#365=FACE_BOUND('',#327,.T.);
#366=FACE_BOUND('',#20,.T.);
#367=FACE_BOUND('',#328,.T.);
#368=FACE_BOUND('',#329,.T.);
#369=FACE_BOUND('',#330,.T.);
#370=FACE_BOUND('',#21,.T.);
#371=FACE_BOUND('',#331,.T.);
#372=PLANE('',#423);
#373=PLANE('',#424);
#374=PLANE('',#429);
#375=PLANE('',#430);
#376=PLANE('',#434);
#377=PLANE('',#435);
#378=PLANE('',#436);
#379=PLANE('',#439);
#380=PLANE('',#440);
#381=PLANE('',#444);
#382=PLANE('',#445);
#383=PLANE('',#446);
#384=PLANE('',#449);
#385=PLANE('',#454);
#386=ADVANCED_FACE('',(#332),#372,.F.);
#387=ADVANCED_FACE('',(#333,#334,#335,#336,#337),#373,.F.);
#388=ADVANCED_FACE('',(#338),#374,.F.);
#389=ADVANCED_FACE('',(#339),#375,.F.);
#390=ADVANCED_FACE('',(#340),#24,.F.);
#391=ADVANCED_FACE('',(#341),#376,.F.);
#392=ADVANCED_FACE('',(#342),#377,.F.);
#393=ADVANCED_FACE('',(#343,#344,#345),#378,.F.);
#394=ADVANCED_FACE('',(#346),#379,.F.);
#395=ADVANCED_FACE('',(#347),#380,.F.);
#396=ADVANCED_FACE('',(#348),#25,.F.);
#397=ADVANCED_FACE('',(#349),#381,.F.);
#398=ADVANCED_FACE('',(#350),#382,.T.);
#399=ADVANCED_FACE('',(#351),#383,.F.);
#400=ADVANCED_FACE('',(#352,#353),#26,.F.);
#401=ADVANCED_FACE('',(#354,#355),#384,.T.);
#402=ADVANCED_FACE('',(#356,#357),#27,.F.);
#403=ADVANCED_FACE('',(#358,#359),#28,.F.);
#404=ADVANCED_FACE('',(#360,#361),#385,.T.);
#405=ADVANCED_FACE('',(#362,#363),#29,.F.);
#406=ADVANCED_FACE('',(#364,#365),#30,.F.);
#407=ADVANCED_FACE('',(#366,#367),#22,.F.);
#408=ADVANCED_FACE('',(#368,#369),#31,.F.);
#409=ADVANCED_FACE('',(#370,#371),#23,.F.);
#410=CLOSED_SHELL('',(#386,#387,#388,#389,#390,#391,#392,#393,#394,#395,
#396,#397,#398,#399,#400,#401,#402,#403,#404,#405,#406,#407,#408,#409));
#411=STYLED_ITEM('',(#412),#419);
#412=PRESENTATION_STYLE_ASSIGNMENT((#413));
#413=SURFACE_STYLE_USAGE(.BOTH.,#414);
#414=SURFACE_SIDE_STYLE('',(#415));
#415=SURFACE_STYLE_FILL_AREA(#416);
#416=FILL_AREA_STYLE('',(#417));
#417=FILL_AREA_STYLE_COLOUR('',#418);
#418=COLOUR_RGB('',0.689999997615814,0.689999997615814,0.689999997615814);
#419=MANIFOLD_SOLID_BREP('163201 HAPB-2',#410);
#420=SHAPE_DEFINITION_REPRESENTATION(#694,#421);
#421=SHAPE_REPRESENTATION('163201 HAPB-2',(#422),#689);
#422=AXIS2_PLACEMENT_3D('',#577,#463,#464);
#423=AXIS2_PLACEMENT_3D('',#578,#465,#466);
#424=AXIS2_PLACEMENT_3D('',#587,#471,#472);
#425=AXIS2_PLACEMENT_3D('',#588,#473,#474);
#426=AXIS2_PLACEMENT_3D('',#590,#475,#476);
#427=AXIS2_PLACEMENT_3D('',#592,#477,#478);
#428=AXIS2_PLACEMENT_3D('',#594,#479,#480);
#429=AXIS2_PLACEMENT_3D('',#601,#484,#485);
#430=AXIS2_PLACEMENT_3D('',#607,#489,#490);
#431=AXIS2_PLACEMENT_3D('',#613,#494,#495);
#432=AXIS2_PLACEMENT_3D('',#614,#496,#497);
#433=AXIS2_PLACEMENT_3D('',#618,#499,#500);
#434=AXIS2_PLACEMENT_3D('',#619,#501,#502);
#435=AXIS2_PLACEMENT_3D('',#625,#506,#507);
#436=AXIS2_PLACEMENT_3D('',#631,#511,#512);
#437=AXIS2_PLACEMENT_3D('',#632,#513,#514);
#438=AXIS2_PLACEMENT_3D('',#634,#515,#516);
#439=AXIS2_PLACEMENT_3D('',#641,#520,#521);
#440=AXIS2_PLACEMENT_3D('',#647,#525,#526);
#441=AXIS2_PLACEMENT_3D('',#653,#530,#531);
#442=AXIS2_PLACEMENT_3D('',#654,#532,#533);
#443=AXIS2_PLACEMENT_3D('',#658,#535,#536);
#444=AXIS2_PLACEMENT_3D('',#659,#537,#538);
#445=AXIS2_PLACEMENT_3D('',#662,#541,#542);
#446=AXIS2_PLACEMENT_3D('',#663,#543,#544);
#447=AXIS2_PLACEMENT_3D('',#664,#545,#546);
#448=AXIS2_PLACEMENT_3D('',#665,#547,#548);
#449=AXIS2_PLACEMENT_3D('',#667,#549,#550);
#450=AXIS2_PLACEMENT_3D('',#668,#551,#552);
#451=AXIS2_PLACEMENT_3D('',#670,#553,#554);
#452=AXIS2_PLACEMENT_3D('',#671,#555,#556);
#453=AXIS2_PLACEMENT_3D('',#672,#557,#558);
#454=AXIS2_PLACEMENT_3D('',#674,#559,#560);
#455=AXIS2_PLACEMENT_3D('',#675,#561,#562);
#456=AXIS2_PLACEMENT_3D('',#677,#563,#564);
#457=AXIS2_PLACEMENT_3D('',#678,#565,#566);
#458=AXIS2_PLACEMENT_3D('',#679,#567,#568);
#459=AXIS2_PLACEMENT_3D('',#681,#569,#570);
#460=AXIS2_PLACEMENT_3D('',#683,#571,#572);
#461=AXIS2_PLACEMENT_3D('',#684,#573,#574);
#462=AXIS2_PLACEMENT_3D('',#686,#575,#576);
#463=DIRECTION('',(0.,0.,1.));
#464=DIRECTION('',(1.,0.,0.));
#465=DIRECTION('',(1.,0.,0.));
#466=DIRECTION('',(0.,0.,-1.));
#467=DIRECTION('',(0.,-1.,0.));
#468=DIRECTION('',(0.,0.,-1.));
#469=DIRECTION('',(0.,-1.,0.));
#470=DIRECTION('',(0.,0.,-1.));
#471=DIRECTION('',(0.,1.,0.));
#472=DIRECTION('',(0.,0.,1.));
#473=DIRECTION('',(0.,1.,0.));
#474=DIRECTION('',(0.,0.,1.));
#475=DIRECTION('',(0.,1.,0.));
#476=DIRECTION('',(0.,0.,1.));
#477=DIRECTION('',(0.,1.,0.));
#478=DIRECTION('',(0.,0.,1.));
#479=DIRECTION('',(0.,1.,0.));
#480=DIRECTION('',(0.,0.,1.));
#481=DIRECTION('',(1.,0.,0.));
#482=DIRECTION('',(0.,0.,-1.));
#483=DIRECTION('',(1.,0.,0.));
#484=DIRECTION('',(-1.,0.,0.));
#485=DIRECTION('',(0.,0.,1.));
#486=DIRECTION('',(0.,1.,0.));
#487=DIRECTION('',(0.,0.,-1.));
#488=DIRECTION('',(0.,1.,0.));
#489=DIRECTION('',(0.,-1.,0.));
#490=DIRECTION('',(0.,0.,-1.));
#491=DIRECTION('',(-1.,0.,0.));
#492=DIRECTION('',(0.,0.,-1.));
#493=DIRECTION('',(-1.,0.,0.));
#494=DIRECTION('',(0.,0.,-1.));
#495=DIRECTION('',(-1.,0.,0.));
#496=DIRECTION('',(0.,0.,1.));
#497=DIRECTION('',(1.,0.,0.));
#498=DIRECTION('',(0.,0.,-1.));
#499=DIRECTION('',(0.,0.,1.));
#500=DIRECTION('',(1.,0.,0.));
#501=DIRECTION('',(-0.707106781186548,0.707106781186548,0.));
#502=DIRECTION('',(-0.707106781186548,-0.707106781186548,0.));
#503=DIRECTION('',(0.707106781186547,0.707106781186547,0.));
#504=DIRECTION('',(0.,0.,-1.));
#505=DIRECTION('',(0.707106781186547,0.707106781186547,0.));
#506=DIRECTION('',(-1.,0.,0.));
#507=DIRECTION('',(0.,0.,1.));
#508=DIRECTION('',(0.,1.,0.));
#509=DIRECTION('',(0.,0.,-1.));
#510=DIRECTION('',(0.,1.,0.));
#511=DIRECTION('',(0.,-1.,0.));
#512=DIRECTION('',(0.,0.,-1.));
#513=DIRECTION('',(0.,1.,0.));
#514=DIRECTION('',(0.,0.,1.));
#515=DIRECTION('',(0.,1.,0.));
#516=DIRECTION('',(0.,0.,1.));
#517=DIRECTION('',(-1.,0.,0.));
#518=DIRECTION('',(0.,0.,-1.));
#519=DIRECTION('',(-1.,0.,0.));
#520=DIRECTION('',(1.,0.,0.));
#521=DIRECTION('',(0.,0.,-1.));
#522=DIRECTION('',(0.,-1.,0.));
#523=DIRECTION('',(0.,0.,-1.));
#524=DIRECTION('',(0.,-1.,0.));
#525=DIRECTION('',(0.707106781186548,0.707106781186548,0.));
#526=DIRECTION('',(-0.707106781186548,0.707106781186548,0.));
#527=DIRECTION('',(0.707106781186547,-0.707106781186547,0.));
#528=DIRECTION('',(0.,0.,-1.));
#529=DIRECTION('',(0.707106781186547,-0.707106781186547,0.));
#530=DIRECTION('',(0.,0.,-1.));
#531=DIRECTION('',(-1.,0.,0.));
#532=DIRECTION('',(0.,0.,1.));
#533=DIRECTION('',(1.,0.,0.));
#534=DIRECTION('',(0.,0.,-1.));
#535=DIRECTION('',(0.,0.,1.));
#536=DIRECTION('',(1.,0.,0.));
#537=DIRECTION('',(0.,-1.,0.));
#538=DIRECTION('',(0.,0.,-1.));
#539=DIRECTION('',(-1.,0.,0.));
#540=DIRECTION('',(-1.,0.,0.));
#541=DIRECTION('',(0.,0.,1.));
#542=DIRECTION('',(1.,0.,0.));
#543=DIRECTION('',(0.,0.,1.));
#544=DIRECTION('',(1.,0.,0.));
#545=DIRECTION('',(0.,1.,0.));
#546=DIRECTION('',(0.,0.,1.));
#547=DIRECTION('',(0.,1.,0.));
#548=DIRECTION('',(0.,0.,1.));
#549=DIRECTION('',(0.,1.,0.));
#550=DIRECTION('',(0.,0.,1.));
#551=DIRECTION('',(0.,1.,0.));
#552=DIRECTION('',(0.,0.,1.));
#553=DIRECTION('',(0.,1.,0.));
#554=DIRECTION('',(0.,0.,1.));
#555=DIRECTION('',(0.,1.,0.));
#556=DIRECTION('',(0.,0.,1.));
#557=DIRECTION('',(0.,1.,0.));
#558=DIRECTION('',(0.,0.,1.));
#559=DIRECTION('',(0.,1.,0.));
#560=DIRECTION('',(0.,0.,1.));
#561=DIRECTION('',(0.,1.,0.));
#562=DIRECTION('',(0.,0.,1.));
#563=DIRECTION('',(0.,1.,0.));
#564=DIRECTION('',(0.,0.,1.));
#565=DIRECTION('',(0.,1.,0.));
#566=DIRECTION('',(0.,0.,1.));
#567=DIRECTION('',(0.,1.,0.));
#568=DIRECTION('',(0.,0.,1.));
#569=DIRECTION('',(0.,-1.,0.));
#570=DIRECTION('',(0.,0.,-1.));
#571=DIRECTION('',(0.,1.,0.));
#572=DIRECTION('',(0.,0.,1.));
#573=DIRECTION('',(0.,1.,0.));
#574=DIRECTION('',(0.,0.,1.));
#575=DIRECTION('',(0.,-1.,0.));
#576=DIRECTION('',(0.,0.,-1.));
#577=CARTESIAN_POINT('',(0.,0.,0.));
#578=CARTESIAN_POINT('',(-20.,7.5,80.));
#579=CARTESIAN_POINT('',(-20.,7.5,0.));
#580=CARTESIAN_POINT('',(-20.,7.5,0.));
#581=CARTESIAN_POINT('',(-20.,0.,0.));
#582=CARTESIAN_POINT('',(-20.,0.,80.));
#583=CARTESIAN_POINT('',(-20.,0.,80.));
#584=CARTESIAN_POINT('',(-20.,7.5,80.));
#585=CARTESIAN_POINT('',(-20.,7.5,80.));
#586=CARTESIAN_POINT('',(-20.,7.5,80.));
#587=CARTESIAN_POINT('',(-20.,0.,80.));
#588=CARTESIAN_POINT('',(0.,0.,45.));
#589=CARTESIAN_POINT('',(0.,0.,47.5));
#590=CARTESIAN_POINT('',(0.,0.,25.));
#591=CARTESIAN_POINT('',(0.,0.,27.5));
#592=CARTESIAN_POINT('',(0.,0.,55.));
#593=CARTESIAN_POINT('',(0.,0.,57.75));
#594=CARTESIAN_POINT('',(0.,0.,35.));
#595=CARTESIAN_POINT('',(0.,0.,37.75));
#596=CARTESIAN_POINT('',(-20.,0.,0.));
#597=CARTESIAN_POINT('',(20.,0.,0.));
#598=CARTESIAN_POINT('',(20.,0.,80.));
#599=CARTESIAN_POINT('',(20.,0.,80.));
#600=CARTESIAN_POINT('',(-20.,0.,80.));
#601=CARTESIAN_POINT('',(20.,0.,80.));
#602=CARTESIAN_POINT('',(20.,0.,0.));
#603=CARTESIAN_POINT('',(20.,7.5,0.));
#604=CARTESIAN_POINT('',(20.,7.5,80.));
#605=CARTESIAN_POINT('',(20.,7.5,80.));
#606=CARTESIAN_POINT('',(20.,0.,80.));
#607=CARTESIAN_POINT('',(20.,7.5,80.));
#608=CARTESIAN_POINT('',(20.,7.5,0.));
#609=CARTESIAN_POINT('',(14.626287467478,7.5,0.));
#610=CARTESIAN_POINT('',(14.626287467478,7.5,80.));
#611=CARTESIAN_POINT('',(14.626287467478,7.5,80.));
#612=CARTESIAN_POINT('',(20.,7.5,80.));
#613=CARTESIAN_POINT('',(14.626287467478,7.999992,80.));
#614=CARTESIAN_POINT('',(14.626287467478,7.999992,0.));
#615=CARTESIAN_POINT('',(14.272739733739,8.35353973373902,0.));
#616=CARTESIAN_POINT('',(14.272739733739,8.35353973373902,80.));
#617=CARTESIAN_POINT('',(14.272739733739,8.35353973373902,80.));
#618=CARTESIAN_POINT('',(14.626287467478,7.999992,80.));
#619=CARTESIAN_POINT('',(14.272739733739,8.35353973373902,80.));
#620=CARTESIAN_POINT('',(14.272739733739,8.35353973373902,0.));
#621=CARTESIAN_POINT('',(17.,11.0808,0.));
#622=CARTESIAN_POINT('',(17.,11.0808,80.));
#623=CARTESIAN_POINT('',(17.,11.0808,80.));
#624=CARTESIAN_POINT('',(14.272739733739,8.35353973373902,80.));
#625=CARTESIAN_POINT('',(17.,11.0808,80.));
#626=CARTESIAN_POINT('',(17.,11.0808,0.));
#627=CARTESIAN_POINT('',(17.,12.,0.));
#628=CARTESIAN_POINT('',(17.,12.,80.));
#629=CARTESIAN_POINT('',(17.,12.,80.));
#630=CARTESIAN_POINT('',(17.,11.0808,80.));
#631=CARTESIAN_POINT('',(17.,12.,80.));
#632=CARTESIAN_POINT('',(0.,12.,55.));
#633=CARTESIAN_POINT('',(0.,12.,60.));
#634=CARTESIAN_POINT('',(0.,12.,35.));
#635=CARTESIAN_POINT('',(0.,12.,40.));
#636=CARTESIAN_POINT('',(17.,12.,0.));
#637=CARTESIAN_POINT('',(-17.,12.,0.));
#638=CARTESIAN_POINT('',(-17.,12.,80.));
#639=CARTESIAN_POINT('',(-17.,12.,80.));
#640=CARTESIAN_POINT('',(17.,12.,80.));
#641=CARTESIAN_POINT('',(-17.,12.,80.));
#642=CARTESIAN_POINT('',(-17.,12.,0.));
#643=CARTESIAN_POINT('',(-17.,11.0808,0.));
#644=CARTESIAN_POINT('',(-17.,11.0808,80.));
#645=CARTESIAN_POINT('',(-17.,11.0808,80.));
#646=CARTESIAN_POINT('',(-17.,12.,80.));
#647=CARTESIAN_POINT('',(-17.,11.0808,80.));
#648=CARTESIAN_POINT('',(-17.,11.0808,0.));
#649=CARTESIAN_POINT('',(-14.272739733739,8.35353973373902,0.));
#650=CARTESIAN_POINT('',(-14.272739733739,8.35353973373902,80.));
#651=CARTESIAN_POINT('',(-14.272739733739,8.35353973373902,80.));
#652=CARTESIAN_POINT('',(-17.,11.0808,80.));
#653=CARTESIAN_POINT('',(-14.626287467478,7.999992,80.));
#654=CARTESIAN_POINT('',(-14.626287467478,7.999992,0.));
#655=CARTESIAN_POINT('',(-14.626287467478,7.5,0.));
#656=CARTESIAN_POINT('',(-14.626287467478,7.5,80.));
#657=CARTESIAN_POINT('',(-14.626287467478,7.5,80.));
#658=CARTESIAN_POINT('',(-14.626287467478,7.999992,80.));
#659=CARTESIAN_POINT('',(-14.626287467478,7.5,80.));
#660=CARTESIAN_POINT('',(-14.626287467478,7.5,0.));
#661=CARTESIAN_POINT('',(-14.626287467478,7.5,80.));
#662=CARTESIAN_POINT('',(14.626287467478,7.999992,80.));
#663=CARTESIAN_POINT('',(14.626287467478,7.999992,0.));
#664=CARTESIAN_POINT('',(0.,12.,35.));
#665=CARTESIAN_POINT('',(0.,6.3,35.));
#666=CARTESIAN_POINT('',(0.,6.3,37.75));
#667=CARTESIAN_POINT('',(0.,6.3,37.75));
#668=CARTESIAN_POINT('',(0.,6.3,35.));
#669=CARTESIAN_POINT('',(0.,6.3,40.));
#670=CARTESIAN_POINT('',(0.,12.,35.));
#671=CARTESIAN_POINT('',(0.,12.,55.));
#672=CARTESIAN_POINT('',(0.,6.3,55.));
#673=CARTESIAN_POINT('',(0.,6.3,57.75));
#674=CARTESIAN_POINT('',(0.,6.3,57.75));
#675=CARTESIAN_POINT('',(0.,6.3,55.));
#676=CARTESIAN_POINT('',(0.,6.3,60.));
#677=CARTESIAN_POINT('',(0.,12.,55.));
#678=CARTESIAN_POINT('',(0.,4.44337567297407,25.));
#679=CARTESIAN_POINT('',(0.,3.,25.));
#680=CARTESIAN_POINT('',(0.,3.,27.5));
#681=CARTESIAN_POINT('',(0.,3.,25.));
#682=CARTESIAN_POINT('',(0.,4.44337567297407,25.));
#683=CARTESIAN_POINT('',(0.,4.44337567297406,45.));
#684=CARTESIAN_POINT('',(0.,3.,45.));
#685=CARTESIAN_POINT('',(0.,3.,47.5));
#686=CARTESIAN_POINT('',(0.,3.,45.));
#687=CARTESIAN_POINT('',(0.,4.44337567297406,45.));
#688=MECHANICAL_DESIGN_GEOMETRIC_PRESENTATION_REPRESENTATION('',(#411),
#689);
#689=(
GEOMETRIC_REPRESENTATION_CONTEXT(3)
GLOBAL_UNCERTAINTY_ASSIGNED_CONTEXT((#690))
GLOBAL_UNIT_ASSIGNED_CONTEXT((#693,#692,#691))
REPRESENTATION_CONTEXT('163201 HAPB-2','TOP_LEVEL_ASSEMBLY_PART')
);
#690=UNCERTAINTY_MEASURE_WITH_UNIT(LENGTH_MEASURE(0.005),#693,
'DISTANCE_ACCURACY_VALUE','Maximum Tolerance applied to model');
#691=(
NAMED_UNIT(*)
SI_UNIT($,.STERADIAN.)
SOLID_ANGLE_UNIT()
);
#692=(
NAMED_UNIT(*)
PLANE_ANGLE_UNIT()
SI_UNIT($,.RADIAN.)
);
#693=(
LENGTH_UNIT()
NAMED_UNIT(*)
SI_UNIT(.MILLI.,.METRE.)
);
#694=PRODUCT_DEFINITION_SHAPE('','',#695);
#695=PRODUCT_DEFINITION('','',#697,#696);
#696=PRODUCT_DEFINITION_CONTEXT('',#703,'design');
#697=PRODUCT_DEFINITION_FORMATION_WITH_SPECIFIED_SOURCE('','',#699,
 .NOT_KNOWN.);
#698=PRODUCT_RELATED_PRODUCT_CATEGORY('','',(#699));
#699=PRODUCT('163201 HAPB-2','163201 HAPB-2','163201 HAPB-2',(#701));
#700=PRODUCT_CATEGORY('','');
#701=PRODUCT_CONTEXT('',#703,'mechanical');
#702=APPLICATION_PROTOCOL_DEFINITION('international standard',
'automotive_design',2010,#703);
#703=APPLICATION_CONTEXT(
'core data for automotive mechanical design processes');
ENDSEC;
END-ISO-10303-21;
