ISO-10303-21;
HEADER;
/* Generated by software containing ST-Developer
 * from STEP Tools, Inc. (www.steptools.com) 
 */
/* OPTION: using custom renumber hook */

FILE_DESCRIPTION(
/* description */ ('STEP AP214'),
/* implementation_level */ '2;1');

FILE_NAME(
/* name */ '133129_NPQP-P-S6-FD-P10',
/* time_stamp */ '2024-09-13T07:39:50+02:00',
/* author */ ('License CC BY-ND 4.0'),
/* organization */ ('CADENAS'),
/* preprocessor_version */ 'ST-DEVELOPER v19.3',
/* originating_system */ 'PARTsolutions',
/* authorisation */ '  ');

FILE_SCHEMA (('AUTOMOTIVE_DESIGN {1 0 10303 214 3 1 1}'));
ENDSEC;

DATA;
#10=PROPERTY_DEFINITION_REPRESENTATION(#14,#12);
#11=PROPERTY_DEFINITION_REPRESENTATION(#15,#13);
#12=REPRESENTATION('',(#16),#203);
#13=REPRESENTATION('',(#17),#203);
#14=PROPERTY_DEFINITION('pmi validation property','',#208);
#15=PROPERTY_DEFINITION('pmi validation property','',#208);
#16=VALUE_REPRESENTATION_ITEM('number of annotations',COUNT_MEASURE(0.));
#17=VALUE_REPRESENTATION_ITEM('number of views',COUNT_MEASURE(0.));
#18=SHAPE_REPRESENTATION_RELATIONSHIP('','',#121,#19);
#19=ADVANCED_BREP_SHAPE_REPRESENTATION('',(#119),#203);
#20=TOROIDAL_SURFACE('',#137,2.70000000000001,0.299999999999986);
#21=CYLINDRICAL_SURFACE('',#127,3.5);
#22=CYLINDRICAL_SURFACE('',#131,1.5);
#23=CYLINDRICAL_SURFACE('',#135,3.);
#24=CONICAL_SURFACE('',#125,3.28786796564404,0.785398163397444);
#25=CONICAL_SURFACE('',#129,3.5,1.22173047639603);
#26=CONICAL_SURFACE('',#133,1.5,0.785398163397449);
#27=ORIENTED_EDGE('',*,*,#43,.F.);
#28=ORIENTED_EDGE('',*,*,#44,.F.);
#29=ORIENTED_EDGE('',*,*,#43,.T.);
#30=ORIENTED_EDGE('',*,*,#45,.F.);
#31=ORIENTED_EDGE('',*,*,#44,.T.);
#32=ORIENTED_EDGE('',*,*,#46,.F.);
#33=ORIENTED_EDGE('',*,*,#45,.T.);
#34=ORIENTED_EDGE('',*,*,#47,.F.);
#35=ORIENTED_EDGE('',*,*,#46,.T.);
#36=ORIENTED_EDGE('',*,*,#48,.F.);
#37=ORIENTED_EDGE('',*,*,#47,.T.);
#38=ORIENTED_EDGE('',*,*,#49,.F.);
#39=ORIENTED_EDGE('',*,*,#48,.T.);
#40=ORIENTED_EDGE('',*,*,#49,.T.);
#41=ORIENTED_EDGE('',*,*,#50,.F.);
#42=ORIENTED_EDGE('',*,*,#50,.T.);
#43=EDGE_CURVE('',#51,#51,#59,.T.);
#44=EDGE_CURVE('',#52,#52,#60,.T.);
#45=EDGE_CURVE('',#53,#53,#61,.T.);
#46=EDGE_CURVE('',#54,#54,#62,.T.);
#47=EDGE_CURVE('',#55,#55,#63,.T.);
#48=EDGE_CURVE('',#56,#56,#64,.T.);
#49=EDGE_CURVE('',#57,#57,#65,.T.);
#50=EDGE_CURVE('',#58,#58,#66,.T.);
#51=VERTEX_POINT('',#179);
#52=VERTEX_POINT('',#182);
#53=VERTEX_POINT('',#185);
#54=VERTEX_POINT('',#188);
#55=VERTEX_POINT('',#191);
#56=VERTEX_POINT('',#194);
#57=VERTEX_POINT('',#197);
#58=VERTEX_POINT('',#200);
#59=CIRCLE('',#124,3.28786796564404);
#60=CIRCLE('',#126,3.5);
#61=CIRCLE('',#128,3.5);
#62=CIRCLE('',#130,1.5);
#63=CIRCLE('',#132,1.5);
#64=CIRCLE('',#134,3.);
#65=CIRCLE('',#136,3.);
#66=CIRCLE('',#138,2.7);
#67=EDGE_LOOP('',(#27));
#68=EDGE_LOOP('',(#28));
#69=EDGE_LOOP('',(#29));
#70=EDGE_LOOP('',(#30));
#71=EDGE_LOOP('',(#31));
#72=EDGE_LOOP('',(#32));
#73=EDGE_LOOP('',(#33));
#74=EDGE_LOOP('',(#34));
#75=EDGE_LOOP('',(#35));
#76=EDGE_LOOP('',(#36));
#77=EDGE_LOOP('',(#37));
#78=EDGE_LOOP('',(#38));
#79=EDGE_LOOP('',(#39));
#80=EDGE_LOOP('',(#40));
#81=EDGE_LOOP('',(#41));
#82=EDGE_LOOP('',(#42));
#83=FACE_BOUND('',#67,.T.);
#84=FACE_BOUND('',#68,.T.);
#85=FACE_BOUND('',#69,.T.);
#86=FACE_BOUND('',#70,.T.);
#87=FACE_BOUND('',#71,.T.);
#88=FACE_BOUND('',#72,.T.);
#89=FACE_BOUND('',#73,.T.);
#90=FACE_BOUND('',#74,.T.);
#91=FACE_BOUND('',#75,.T.);
#92=FACE_BOUND('',#76,.T.);
#93=FACE_BOUND('',#77,.T.);
#94=FACE_BOUND('',#78,.T.);
#95=FACE_BOUND('',#79,.T.);
#96=FACE_BOUND('',#80,.T.);
#97=FACE_BOUND('',#81,.T.);
#98=FACE_BOUND('',#82,.T.);
#99=PLANE('',#123);
#100=PLANE('',#139);
#101=ADVANCED_FACE('',(#83),#99,.F.);
#102=ADVANCED_FACE('',(#84,#85),#24,.T.);
#103=ADVANCED_FACE('',(#86,#87),#21,.T.);
#104=ADVANCED_FACE('',(#88,#89),#25,.T.);
#105=ADVANCED_FACE('',(#90,#91),#22,.T.);
#106=ADVANCED_FACE('',(#92,#93),#26,.T.);
#107=ADVANCED_FACE('',(#94,#95),#23,.T.);
#108=ADVANCED_FACE('',(#96,#97),#20,.T.);
#109=ADVANCED_FACE('',(#98),#100,.F.);
#110=CLOSED_SHELL('',(#101,#102,#103,#104,#105,#106,#107,#108,#109));
#111=STYLED_ITEM('',(#112),#119);
#112=PRESENTATION_STYLE_ASSIGNMENT((#113));
#113=SURFACE_STYLE_USAGE(.BOTH.,#114);
#114=SURFACE_SIDE_STYLE('',(#115));
#115=SURFACE_STYLE_FILL_AREA(#116);
#116=FILL_AREA_STYLE('',(#117));
#117=FILL_AREA_STYLE_COLOUR('',#118);
#118=DRAUGHTING_PRE_DEFINED_COLOUR('white');
#119=MANIFOLD_SOLID_BREP('133129 NPQP-P-S6-FD-P10',#110);
#120=SHAPE_DEFINITION_REPRESENTATION(#208,#121);
#121=SHAPE_REPRESENTATION('133129 NPQP-P-S6-FD-P10',(#122),#203);
#122=AXIS2_PLACEMENT_3D('',#176,#140,#141);
#123=AXIS2_PLACEMENT_3D('',#177,#142,#143);
#124=AXIS2_PLACEMENT_3D('',#178,#144,#145);
#125=AXIS2_PLACEMENT_3D('',#180,#146,#147);
#126=AXIS2_PLACEMENT_3D('',#181,#148,#149);
#127=AXIS2_PLACEMENT_3D('',#183,#150,#151);
#128=AXIS2_PLACEMENT_3D('',#184,#152,#153);
#129=AXIS2_PLACEMENT_3D('',#186,#154,#155);
#130=AXIS2_PLACEMENT_3D('',#187,#156,#157);
#131=AXIS2_PLACEMENT_3D('',#189,#158,#159);
#132=AXIS2_PLACEMENT_3D('',#190,#160,#161);
#133=AXIS2_PLACEMENT_3D('',#192,#162,#163);
#134=AXIS2_PLACEMENT_3D('',#193,#164,#165);
#135=AXIS2_PLACEMENT_3D('',#195,#166,#167);
#136=AXIS2_PLACEMENT_3D('',#196,#168,#169);
#137=AXIS2_PLACEMENT_3D('',#198,#170,#171);
#138=AXIS2_PLACEMENT_3D('',#199,#172,#173);
#139=AXIS2_PLACEMENT_3D('',#201,#174,#175);
#140=DIRECTION('',(0.,0.,1.));
#141=DIRECTION('',(1.,0.,0.));
#142=DIRECTION('',(0.,0.,-1.));
#143=DIRECTION('',(-1.,0.,0.));
#144=DIRECTION('',(0.,0.,-1.));
#145=DIRECTION('',(-1.,0.,0.));
#146=DIRECTION('',(0.,0.,-1.));
#147=DIRECTION('',(-1.,0.,0.));
#148=DIRECTION('',(0.,0.,-1.));
#149=DIRECTION('',(-1.,0.,0.));
#150=DIRECTION('',(0.,0.,-1.));
#151=DIRECTION('',(-1.,0.,0.));
#152=DIRECTION('',(0.,0.,-1.));
#153=DIRECTION('',(-1.,0.,0.));
#154=DIRECTION('',(0.,0.,1.));
#155=DIRECTION('',(1.,0.,0.));
#156=DIRECTION('',(0.,0.,-1.));
#157=DIRECTION('',(-1.,0.,0.));
#158=DIRECTION('',(0.,0.,-1.));
#159=DIRECTION('',(-1.,0.,0.));
#160=DIRECTION('',(0.,0.,-1.));
#161=DIRECTION('',(-1.,0.,0.));
#162=DIRECTION('',(0.,0.,-1.));
#163=DIRECTION('',(-1.,0.,0.));
#164=DIRECTION('',(0.,0.,-1.));
#165=DIRECTION('',(-1.,0.,0.));
#166=DIRECTION('',(0.,0.,-1.));
#167=DIRECTION('',(-1.,0.,0.));
#168=DIRECTION('',(0.,0.,-1.));
#169=DIRECTION('',(-1.,0.,0.));
#170=DIRECTION('',(0.,0.,-1.));
#171=DIRECTION('',(-1.,0.,0.));
#172=DIRECTION('',(0.,0.,-1.));
#173=DIRECTION('',(-1.,0.,0.));
#174=DIRECTION('',(0.,0.,1.));
#175=DIRECTION('',(1.,0.,0.));
#176=CARTESIAN_POINT('',(0.,0.,0.));
#177=CARTESIAN_POINT('',(0.,0.,0.));
#178=CARTESIAN_POINT('',(0.,0.,0.));
#179=CARTESIAN_POINT('',(-3.28786796564404,0.,0.));
#180=CARTESIAN_POINT('',(0.,0.,0.));
#181=CARTESIAN_POINT('',(0.,0.,-0.212132034355966));
#182=CARTESIAN_POINT('',(-3.5,0.,-0.212132034355966));
#183=CARTESIAN_POINT('',(0.,0.,-32.5));
#184=CARTESIAN_POINT('',(0.,0.,-2.16666666666666));
#185=CARTESIAN_POINT('',(-3.5,0.,-2.16666666666666));
#186=CARTESIAN_POINT('',(0.,0.,-2.16666666666666));
#187=CARTESIAN_POINT('',(0.,0.,-2.89460713519907));
#188=CARTESIAN_POINT('',(-1.5,0.,-2.89460713519907));
#189=CARTESIAN_POINT('',(0.,0.,-32.5));
#190=CARTESIAN_POINT('',(0.,0.,-14.));
#191=CARTESIAN_POINT('',(-1.5,0.,-14.));
#192=CARTESIAN_POINT('',(0.,0.,-14.));
#193=CARTESIAN_POINT('',(0.,0.,-15.5));
#194=CARTESIAN_POINT('',(-3.,0.,-15.5));
#195=CARTESIAN_POINT('',(0.,0.,-32.5));
#196=CARTESIAN_POINT('',(0.,0.,-32.2));
#197=CARTESIAN_POINT('',(-3.,0.,-32.2));
#198=CARTESIAN_POINT('',(0.,0.,-32.2));
#199=CARTESIAN_POINT('',(0.,0.,-32.5));
#200=CARTESIAN_POINT('',(-2.7,0.,-32.5));
#201=CARTESIAN_POINT('',(0.,2.7,-32.5));
#202=MECHANICAL_DESIGN_GEOMETRIC_PRESENTATION_REPRESENTATION('',(#111),
#203);
#203=(
GEOMETRIC_REPRESENTATION_CONTEXT(3)
GLOBAL_UNCERTAINTY_ASSIGNED_CONTEXT((#204))
GLOBAL_UNIT_ASSIGNED_CONTEXT((#207,#206,#205))
REPRESENTATION_CONTEXT('133129 NPQP-P-S6-FD-P10',
'TOP_LEVEL_ASSEMBLY_PART')
);
#204=UNCERTAINTY_MEASURE_WITH_UNIT(LENGTH_MEASURE(0.005),#207,
'DISTANCE_ACCURACY_VALUE','Maximum Tolerance applied to model');
#205=(
NAMED_UNIT(*)
SI_UNIT($,.STERADIAN.)
SOLID_ANGLE_UNIT()
);
#206=(
NAMED_UNIT(*)
PLANE_ANGLE_UNIT()
SI_UNIT($,.RADIAN.)
);
#207=(
LENGTH_UNIT()
NAMED_UNIT(*)
SI_UNIT(.MILLI.,.METRE.)
);
#208=PRODUCT_DEFINITION_SHAPE('','',#209);
#209=PRODUCT_DEFINITION('','',#211,#210);
#210=PRODUCT_DEFINITION_CONTEXT('',#217,'design');
#211=PRODUCT_DEFINITION_FORMATION_WITH_SPECIFIED_SOURCE('','',#213,
 .NOT_KNOWN.);
#212=PRODUCT_RELATED_PRODUCT_CATEGORY('','',(#213));
#213=PRODUCT('133129 NPQP-P-S6-FD-P10','133129 NPQP-P-S6-FD-P10',
'133129 NPQP-P-S6-FD-P10',(#215));
#214=PRODUCT_CATEGORY('','');
#215=PRODUCT_CONTEXT('',#217,'mechanical');
#216=APPLICATION_PROTOCOL_DEFINITION('international standard',
'automotive_design',2010,#217);
#217=APPLICATION_CONTEXT(
'core data for automotive mechanical design processes');
ENDSEC;
END-ISO-10303-21;
