ISO-10303-21;
HEADER;
/* Generated by software containing ST-Developer
 * from STEP Tools, Inc. (www.steptools.com) 
 */
/* OPTION: using custom renumber hook */

FILE_DESCRIPTION(
/* description */ ('STEP AP214'),
/* implementation_level */ '2;1');

FILE_NAME(
/* name */ '1048884_OASI-50',
/* time_stamp */ '2024-09-13T10:19:42+02:00',
/* author */ ('License CC BY-ND 4.0'),
/* organization */ ('CADENAS'),
/* preprocessor_version */ 'ST-DEVELOPER v19.3',
/* originating_system */ 'PARTsolutions',
/* authorisation */ '  ');

FILE_SCHEMA (('AUTOMOTIVE_DESIGN {1 0 10303 214 3 1 1}'));
ENDSEC;

DATA;
#10=PROPERTY_DEFINITION_REPRESENTATION(#14,#12);
#11=PROPERTY_DEFINITION_REPRESENTATION(#15,#13);
#12=REPRESENTATION('',(#16),#243);
#13=REPRESENTATION('',(#17),#243);
#14=PROPERTY_DEFINITION('pmi validation property','',#248);
#15=PROPERTY_DEFINITION('pmi validation property','',#248);
#16=VALUE_REPRESENTATION_ITEM('number of annotations',COUNT_MEASURE(0.));
#17=VALUE_REPRESENTATION_ITEM('number of views',COUNT_MEASURE(0.));
#18=SHAPE_REPRESENTATION_RELATIONSHIP('','',#143,#19);
#19=ADVANCED_BREP_SHAPE_REPRESENTATION('',(#141),#243);
#20=CONICAL_SURFACE('',#152,16.1,1.0471975511966);
#21=CONICAL_SURFACE('',#156,20.,1.0471975511966);
#22=CONICAL_SURFACE('',#163,14.,0.174532925199433);
#23=CYLINDRICAL_SURFACE('',#148,16.);
#24=CYLINDRICAL_SURFACE('',#154,20.);
#25=CYLINDRICAL_SURFACE('',#160,16.);
#26=ORIENTED_EDGE('',*,*,#46,.F.);
#27=ORIENTED_EDGE('',*,*,#47,.T.);
#28=ORIENTED_EDGE('',*,*,#48,.F.);
#29=ORIENTED_EDGE('',*,*,#46,.T.);
#30=ORIENTED_EDGE('',*,*,#49,.F.);
#31=ORIENTED_EDGE('',*,*,#48,.T.);
#32=ORIENTED_EDGE('',*,*,#50,.F.);
#33=ORIENTED_EDGE('',*,*,#49,.T.);
#34=ORIENTED_EDGE('',*,*,#51,.F.);
#35=ORIENTED_EDGE('',*,*,#50,.T.);
#36=ORIENTED_EDGE('',*,*,#52,.F.);
#37=ORIENTED_EDGE('',*,*,#51,.T.);
#38=ORIENTED_EDGE('',*,*,#53,.F.);
#39=ORIENTED_EDGE('',*,*,#52,.T.);
#40=ORIENTED_EDGE('',*,*,#54,.F.);
#41=ORIENTED_EDGE('',*,*,#53,.T.);
#42=ORIENTED_EDGE('',*,*,#54,.T.);
#43=ORIENTED_EDGE('',*,*,#55,.T.);
#44=ORIENTED_EDGE('',*,*,#47,.F.);
#45=ORIENTED_EDGE('',*,*,#55,.F.);
#46=EDGE_CURVE('',#56,#56,#66,.T.);
#47=EDGE_CURVE('',#57,#57,#67,.T.);
#48=EDGE_CURVE('',#58,#58,#68,.T.);
#49=EDGE_CURVE('',#59,#59,#69,.T.);
#50=EDGE_CURVE('',#60,#60,#70,.T.);
#51=EDGE_CURVE('',#61,#61,#71,.T.);
#52=EDGE_CURVE('',#62,#62,#72,.T.);
#53=EDGE_CURVE('',#63,#63,#73,.T.);
#54=EDGE_CURVE('',#64,#64,#74,.T.);
#55=EDGE_CURVE('',#65,#65,#75,.T.);
#56=VERTEX_POINT('',#213);
#57=VERTEX_POINT('',#215);
#58=VERTEX_POINT('',#218);
#59=VERTEX_POINT('',#221);
#60=VERTEX_POINT('',#224);
#61=VERTEX_POINT('',#227);
#62=VERTEX_POINT('',#230);
#63=VERTEX_POINT('',#233);
#64=VERTEX_POINT('',#236);
#65=VERTEX_POINT('',#240);
#66=CIRCLE('',#146,16.);
#67=CIRCLE('',#147,14.);
#68=CIRCLE('',#149,16.);
#69=CIRCLE('',#151,16.1);
#70=CIRCLE('',#153,20.);
#71=CIRCLE('',#155,20.);
#72=CIRCLE('',#157,16.1);
#73=CIRCLE('',#159,16.);
#74=CIRCLE('',#161,16.);
#75=CIRCLE('',#164,11.70774925079);
#76=EDGE_LOOP('',(#26));
#77=EDGE_LOOP('',(#27));
#78=EDGE_LOOP('',(#28));
#79=EDGE_LOOP('',(#29));
#80=EDGE_LOOP('',(#30));
#81=EDGE_LOOP('',(#31));
#82=EDGE_LOOP('',(#32));
#83=EDGE_LOOP('',(#33));
#84=EDGE_LOOP('',(#34));
#85=EDGE_LOOP('',(#35));
#86=EDGE_LOOP('',(#36));
#87=EDGE_LOOP('',(#37));
#88=EDGE_LOOP('',(#38));
#89=EDGE_LOOP('',(#39));
#90=EDGE_LOOP('',(#40));
#91=EDGE_LOOP('',(#41));
#92=EDGE_LOOP('',(#42));
#93=EDGE_LOOP('',(#43));
#94=EDGE_LOOP('',(#44));
#95=EDGE_LOOP('',(#45));
#96=FACE_BOUND('',#76,.T.);
#97=FACE_BOUND('',#77,.T.);
#98=FACE_BOUND('',#78,.T.);
#99=FACE_BOUND('',#79,.T.);
#100=FACE_BOUND('',#80,.T.);
#101=FACE_BOUND('',#81,.T.);
#102=FACE_BOUND('',#82,.T.);
#103=FACE_BOUND('',#83,.T.);
#104=FACE_BOUND('',#84,.T.);
#105=FACE_BOUND('',#85,.T.);
#106=FACE_BOUND('',#86,.T.);
#107=FACE_BOUND('',#87,.T.);
#108=FACE_BOUND('',#88,.T.);
#109=FACE_BOUND('',#89,.T.);
#110=FACE_BOUND('',#90,.T.);
#111=FACE_BOUND('',#91,.T.);
#112=FACE_BOUND('',#92,.T.);
#113=FACE_BOUND('',#93,.T.);
#114=FACE_BOUND('',#94,.T.);
#115=FACE_BOUND('',#95,.T.);
#116=PLANE('',#145);
#117=PLANE('',#150);
#118=PLANE('',#158);
#119=PLANE('',#162);
#120=PLANE('',#165);
#121=ADVANCED_FACE('',(#96,#97),#116,.F.);
#122=ADVANCED_FACE('',(#98,#99),#23,.T.);
#123=ADVANCED_FACE('',(#100,#101),#117,.F.);
#124=ADVANCED_FACE('',(#102,#103),#20,.T.);
#125=ADVANCED_FACE('',(#104,#105),#24,.T.);
#126=ADVANCED_FACE('',(#106,#107),#21,.T.);
#127=ADVANCED_FACE('',(#108,#109),#118,.F.);
#128=ADVANCED_FACE('',(#110,#111),#25,.T.);
#129=ADVANCED_FACE('',(#112),#119,.F.);
#130=ADVANCED_FACE('',(#113,#114),#22,.F.);
#131=ADVANCED_FACE('',(#115),#120,.T.);
#132=CLOSED_SHELL('',(#121,#122,#123,#124,#125,#126,#127,#128,#129,#130,
#131));
#133=STYLED_ITEM('',(#134),#141);
#134=PRESENTATION_STYLE_ASSIGNMENT((#135));
#135=SURFACE_STYLE_USAGE(.BOTH.,#136);
#136=SURFACE_SIDE_STYLE('',(#137));
#137=SURFACE_STYLE_FILL_AREA(#138);
#138=FILL_AREA_STYLE('',(#139));
#139=FILL_AREA_STYLE_COLOUR('',#140);
#140=COLOUR_RGB('',0.689999997615814,0.689999997615814,0.689999997615814);
#141=MANIFOLD_SOLID_BREP('1048884 OASI-50',#132);
#142=SHAPE_DEFINITION_REPRESENTATION(#248,#143);
#143=SHAPE_REPRESENTATION('1048884 OASI-50',(#144),#243);
#144=AXIS2_PLACEMENT_3D('',#210,#166,#167);
#145=AXIS2_PLACEMENT_3D('',#211,#168,#169);
#146=AXIS2_PLACEMENT_3D('',#212,#170,#171);
#147=AXIS2_PLACEMENT_3D('',#214,#172,#173);
#148=AXIS2_PLACEMENT_3D('',#216,#174,#175);
#149=AXIS2_PLACEMENT_3D('',#217,#176,#177);
#150=AXIS2_PLACEMENT_3D('',#219,#178,#179);
#151=AXIS2_PLACEMENT_3D('',#220,#180,#181);
#152=AXIS2_PLACEMENT_3D('',#222,#182,#183);
#153=AXIS2_PLACEMENT_3D('',#223,#184,#185);
#154=AXIS2_PLACEMENT_3D('',#225,#186,#187);
#155=AXIS2_PLACEMENT_3D('',#226,#188,#189);
#156=AXIS2_PLACEMENT_3D('',#228,#190,#191);
#157=AXIS2_PLACEMENT_3D('',#229,#192,#193);
#158=AXIS2_PLACEMENT_3D('',#231,#194,#195);
#159=AXIS2_PLACEMENT_3D('',#232,#196,#197);
#160=AXIS2_PLACEMENT_3D('',#234,#198,#199);
#161=AXIS2_PLACEMENT_3D('',#235,#200,#201);
#162=AXIS2_PLACEMENT_3D('',#237,#202,#203);
#163=AXIS2_PLACEMENT_3D('',#238,#204,#205);
#164=AXIS2_PLACEMENT_3D('',#239,#206,#207);
#165=AXIS2_PLACEMENT_3D('',#241,#208,#209);
#166=DIRECTION('',(0.,0.,1.));
#167=DIRECTION('',(1.,0.,0.));
#168=DIRECTION('',(0.,-1.,0.));
#169=DIRECTION('',(0.,0.,-1.));
#170=DIRECTION('',(0.,-1.,0.));
#171=DIRECTION('',(0.,0.,-1.));
#172=DIRECTION('',(0.,-1.,0.));
#173=DIRECTION('',(0.,0.,-1.));
#174=DIRECTION('',(0.,-1.,0.));
#175=DIRECTION('',(0.,0.,-1.));
#176=DIRECTION('',(0.,-1.,0.));
#177=DIRECTION('',(0.,0.,-1.));
#178=DIRECTION('',(0.,-1.,0.));
#179=DIRECTION('',(0.,0.,-1.));
#180=DIRECTION('',(0.,-1.,0.));
#181=DIRECTION('',(0.,0.,-1.));
#182=DIRECTION('',(0.,-1.,0.));
#183=DIRECTION('',(0.,0.,-1.));
#184=DIRECTION('',(0.,-1.,0.));
#185=DIRECTION('',(0.,0.,-1.));
#186=DIRECTION('',(0.,-1.,0.));
#187=DIRECTION('',(0.,0.,-1.));
#188=DIRECTION('',(0.,-1.,0.));
#189=DIRECTION('',(0.,0.,-1.));
#190=DIRECTION('',(0.,1.,0.));
#191=DIRECTION('',(0.,0.,1.));
#192=DIRECTION('',(0.,-1.,0.));
#193=DIRECTION('',(0.,0.,-1.));
#194=DIRECTION('',(0.,1.,0.));
#195=DIRECTION('',(0.,0.,1.));
#196=DIRECTION('',(0.,-1.,0.));
#197=DIRECTION('',(0.,0.,-1.));
#198=DIRECTION('',(0.,-1.,0.));
#199=DIRECTION('',(0.,0.,-1.));
#200=DIRECTION('',(0.,-1.,0.));
#201=DIRECTION('',(0.,0.,-1.));
#202=DIRECTION('',(0.,1.,0.));
#203=DIRECTION('',(0.,0.,1.));
#204=DIRECTION('',(0.,1.,0.));
#205=DIRECTION('',(0.,0.,1.));
#206=DIRECTION('',(0.,-1.,0.));
#207=DIRECTION('',(0.,0.,-1.));
#208=DIRECTION('',(0.,1.,0.));
#209=DIRECTION('',(0.,0.,1.));
#210=CARTESIAN_POINT('',(0.,0.,0.));
#211=CARTESIAN_POINT('',(0.,15.,0.));
#212=CARTESIAN_POINT('',(0.,15.,0.));
#213=CARTESIAN_POINT('',(0.,15.,-16.));
#214=CARTESIAN_POINT('',(0.,15.,0.));
#215=CARTESIAN_POINT('',(0.,15.,-14.));
#216=CARTESIAN_POINT('',(0.,0.,0.));
#217=CARTESIAN_POINT('',(0.,10.7,0.));
#218=CARTESIAN_POINT('',(0.,10.7,-16.));
#219=CARTESIAN_POINT('',(16.,10.7,0.));
#220=CARTESIAN_POINT('',(0.,10.7,0.));
#221=CARTESIAN_POINT('',(0.,10.7,-16.1));
#222=CARTESIAN_POINT('',(0.,10.7,0.));
#223=CARTESIAN_POINT('',(0.,8.44833395016046,0.));
#224=CARTESIAN_POINT('',(0.,8.44833395016046,-20.));
#225=CARTESIAN_POINT('',(0.,0.,0.));
#226=CARTESIAN_POINT('',(0.,6.55166604983954,0.));
#227=CARTESIAN_POINT('',(0.,6.55166604983954,-20.));
#228=CARTESIAN_POINT('',(0.,6.55166604983954,0.));
#229=CARTESIAN_POINT('',(0.,4.3,0.));
#230=CARTESIAN_POINT('',(0.,4.3,-16.1));
#231=CARTESIAN_POINT('',(16.1,4.3,0.));
#232=CARTESIAN_POINT('',(0.,4.3,0.));
#233=CARTESIAN_POINT('',(0.,4.3,-16.));
#234=CARTESIAN_POINT('',(0.,0.,0.));
#235=CARTESIAN_POINT('',(0.,8.67361737988404E-16,0.));
#236=CARTESIAN_POINT('',(0.,8.67361737988404E-16,-16.));
#237=CARTESIAN_POINT('',(16.,4.33680868994202E-16,0.));
#238=CARTESIAN_POINT('',(0.,15.,0.));
#239=CARTESIAN_POINT('',(0.,2.,0.));
#240=CARTESIAN_POINT('',(0.,2.,-11.70774925079));
#241=CARTESIAN_POINT('',(11.70774925079,2.,0.));
#242=MECHANICAL_DESIGN_GEOMETRIC_PRESENTATION_REPRESENTATION('',(#133),
#243);
#243=(
GEOMETRIC_REPRESENTATION_CONTEXT(3)
GLOBAL_UNCERTAINTY_ASSIGNED_CONTEXT((#244))
GLOBAL_UNIT_ASSIGNED_CONTEXT((#247,#246,#245))
REPRESENTATION_CONTEXT('1048884 OASI-50','TOP_LEVEL_ASSEMBLY_PART')
);
#244=UNCERTAINTY_MEASURE_WITH_UNIT(LENGTH_MEASURE(0.005),#247,
'DISTANCE_ACCURACY_VALUE','Maximum Tolerance applied to model');
#245=(
NAMED_UNIT(*)
SI_UNIT($,.STERADIAN.)
SOLID_ANGLE_UNIT()
);
#246=(
NAMED_UNIT(*)
PLANE_ANGLE_UNIT()
SI_UNIT($,.RADIAN.)
);
#247=(
LENGTH_UNIT()
NAMED_UNIT(*)
SI_UNIT(.MILLI.,.METRE.)
);
#248=PRODUCT_DEFINITION_SHAPE('','',#249);
#249=PRODUCT_DEFINITION('','',#251,#250);
#250=PRODUCT_DEFINITION_CONTEXT('',#257,'design');
#251=PRODUCT_DEFINITION_FORMATION_WITH_SPECIFIED_SOURCE('','',#253,
 .NOT_KNOWN.);
#252=PRODUCT_RELATED_PRODUCT_CATEGORY('','',(#253));
#253=PRODUCT('1048884 OASI-50','1048884 OASI-50','1048884 OASI-50',(#255));
#254=PRODUCT_CATEGORY('','');
#255=PRODUCT_CONTEXT('',#257,'mechanical');
#256=APPLICATION_PROTOCOL_DEFINITION('international standard',
'automotive_design',2010,#257);
#257=APPLICATION_CONTEXT(
'core data for automotive mechanical design processes');
ENDSEC;
END-ISO-10303-21;
